Song name
# A B C D E F G H I J K L M N O P Q R S T U V W X Y Z

1017 - Tenseventeen tab

Help us improve GuitareTab! Take a short survey!
Album: Tenseventeen
Title: Charing...

Intro (Power Chords)

C# - C#/C- Bbm-Fm -F# - C# - Ab

e|------------------------------------------------------|
B|------------------------------------------------------|
G|------------------------------------------------------|
D|------------------------------------------------------|
A|-4--3-----------------4-6/8--6-4---3h4----------------|
E|--------6-\-1--2--4/6-----------4-----5\--------------| x2

VERSE I

C#     C#/C      Bbm-Fm
Ayaw nakug ilara pa
F#      C#      Ab
Ka-ilan ako sa imuha
C#               C#/C    Bbm-Fm
Magpasweet-sweet paka sa akon
F#          C#         Ab
Ikugan man diay kang dako

REFRAIN

        Ebm          Ab
Ingon paka nga sexy ka
    Fm         Bbm
Na model ka sa perla
      Ebm
Pero katong nag-eyeball ta
                Ab
Barako man diay ka

CHORUS

C#
Charing
  C#\C       Bbm-Fm
Nailad ko sa buing
F#                  Ab
Charing kasakit sa kasing-kasing
C#
Charing
  C#\C       Bbm-Fm
Nailad ko sa buing
F#
Charing
 C#                 Ab
Nialop pa sapung aping
           C#
Si Dodong Charing

INTERLUDE (Same as Intro)

VERSE II

C#   C#/C             Bbm-Fm
Nagpadala ko og diyes mil
F#         C#                 Ab
Kay nagtoo ko na ikaw usa ka anghel
C#       C#/C                 Bbm-Fm
Nasayang lang jud ang akong kwarta
F#                             Ab
Demonyo man diay kang kagwanga ka

REFRAIN

        Ebm           Ab
Ingon paka nga gwapa ka
       Fm         Bbm
Nang model ka sa perla
      Ebm
Pero katong nag-eyeball ta
                Ab
Barako man diay ka

repeat chorus:

--GUITAR SOLO--

[refrain]
[chorus]

Title: Berting
Intro: E-C#m-F#m-B (repeat)
verse:
E  C#m  F#m        B         E-C#m
Ting, gutom na'ng mga pato ting
 F#m            B       E-C#m
Bigyan mo na ng kanin ting
 F#m          B       E-C#m-F#m-B
Dalhin mo na agad berting
E C#m   F#m         B       E-C#m
Ting, Ihanda mo ang labada ting
 F#m              B     E-C#m
Kusutin mo na'ng maigi ting
 F#m              B      E-C#m-F#m-B
Lagyan mo rin ng clorox ting....

Koro:
   A                G#m                  B            Esus E
Berting (berting)...ang macho ng iyong dating (dating)
   A                G#m                  B            Gsus G
Berting (berting)...na ander ng kanyang darling (darling)
 CM7      Am                 G...Esus E
Berting wag kang magpapatao ting
 F#m                G#m        A        B           E-C#m-F#m-B(2x)
Wag mong hayaang mamihasa ang misis mo oh... Berting....

E  C#m    F#m          B     E-C#m
Ting ang dumi-dumi ng bahay ting
 F#m           B     E-C#m
Baka si nanay dumating
 F#m          B      E-C#m-F#m-B
Lagot ka mamaya Berting
E C#m     F#m          B       E-C#m
Ting mag-isip ka na ng tubig ting
 F#m              B      E-C#m
Ihanda mo na ang banyo ting
 F#m         B        E-C#m-F#m-B
Paliguan mo ako Berting...hay...

Koro:
   A                G#m                  B            Esus E
Berting (berting)...ang macho ng iyong dating (dating)
   A                G#m                  B            Gsus G
Berting (berting)...na ander ng kanyang darling (darling)
 CM7      Am                 G...Esus E
Berting wag kang magpapatao ting
 F#m                G#m        A        B           (adlib)
Wag mong hayaang mamihasa ang misis mo oh... Berting....
[mr_rain rocks!....adlib here...E-C#m-F#m-B four times]

        ^     ^     ^
e--4-4----4-4---5-5--------------------------------------------..I
b--5-5----5-5---7-7---7----------------------------------------..I
g--4-4----6-6---6-6---8----------------------------------------..I
d---------6-6------------I....four times here...habang adlib.--..
a--------------------------------------------------------------..I
E--------------------------------------------------------------..I

Koro:
   A                G#m                  B            Esus E
Berting (berting)...ang macho ng iyong dating (dating)
   A                G#m                  B            Gsus G
Berting (berting)...na ander ng kanyang darling (darling)
 CM7      Am                 G...Esus E
Berting wag kang magpapatao ting
 F#m                G#m        A        B
wag mong hayaang mamihasa ang misis mo oh...

[use the chords E-C#m-F#m-B here...three times]
Berting...
Oh...ting...
     CM7           D   E(hold)...
Ang laki ng iyong **-****....

Title: Ibun...

Intro: C-G-F-G (2x)

   C       G               Am        Em
Sa loob ng sasakyan meron siyang nararamdaman
   F                  C         G
At di niya talaga mapigilan kamutin ang kanyang tiyan
 C                G      Am              Em
Kamay niya'y nasa bulsa, akala ko'y kukuha ng pera
  F                     C       G
Pero kinamot nya lang pala ang buni sa kanyang hita...

refrain:

Am      Em            F             G
wag kang mahiya sa akin dahil hindi ko sasabihin
          Dm        Em
na ang buni mo ay kumakapal na
      F                 G...(hold)
sing kapal ng balat ng baka

Chorus:
               C     Em             F-G
Ang laki ng problema kapag may buni ka...
                C    Em                      F-G
Nagtatanong kung bakit kumakalat ang iyong pwet...

               Am         Em         F-G
Ang hindi mo nalalaman na nakakahawa yan..
          Dm     Em   F        G      (intro)
kaya ang sabi ni lolo buhusan ng asido...


    C         G       Am            Em
Ang likot mo talaga, daig mo pa ang di napagka
    F           C          G
ang buni mo ay kumakalat umabot na sa iyong balikat


refrain:

Am      Em            F             G
wag kang mahiya sa akin dahil hindi ko sasabihin
          Dm        Em
na ang buni mo ay kumakapal na
      F                 G...(hold)
sing kapal ng balat ng baka

Chorus:
               C     Em             F-G
Ang laki ng problema kapag may buni ka...
                C    Em                      F-G
Nagtatanong kung bakit kumakalat ang iyong pwet...

               Am         Em         F-G
Ang hindi mo nalalaman na nakakahawa yan..
          Dm     Em   F        G      adlib[C-G-F-G]
kaya ang sabi ni lolo buhusan ng asido...

repeat chorus except last line...

           Dm      Em   F           G
Kaya ang sabi ni lolo ikiskis mo sa semento
      Dm       Em    F          G
Ang sabi ni lolo paluin mo ng maso
       Dm     Em     F       G
Ang sabi ni lolo buhusan ng asido...


Title: Nobena

Intro: D-Bm (2x)

D                 Bm
Oras na naman ng paglubog ng araw
D                 Bm
Takip silim ay unti-unting dumarating
G                       A         D-Bm-D-Bm....
Nagtatanong kung kailan ka babalik.....

D                      Bm
Sa bawat oras na talk lang ang alaala
D                     Bm
Buhay pa rin sa isip ang nakaraan
G                      A
Nagtatanong sa langit kung....

Chorus:

D                             Bm
Ilang ulit na panalangin ang aking gagawin
  G                   A
Bumalik ka lang dito sa piling ko
D                        Bm
Ilang ulit nagdarasal sana ay malaman mo
G                    A         D-Bm-D-Bm
Na kailangan kita sa buhay ko...


D                    Bm
Lamig ng hanging ay di ko naalintana
D                    Bm
Bilanggo pa rin ang aking alaala
G                     A     D-Bm-D-Bm
Hinahanda pa din ang yakap ko....

D                      Bm
Sa bawat oras na talk lang ang alaala
D                     Bm
Buhay pa rin sa isip ang nakaraan
G                      A
Nagtatanong sa langit kung....

[chorus]
[adlib]Bm...
[chorus]3x

Title: 2k2papa
Intro: A9-A/E...(4x)

e-------------------------------------------------I
b-------------------------------------------------I
g----------1--/4-1---1-1---------1--/4-1---1-1----I
d--2h4-2h4---------4-----2h4-2h4---------4--------I (2x)
a-------------------------------------------------I
E-------------------------------------------------I

e-------------------------------------------------I
b----------2--/5-2---2-2---------2--/5-2---2-2----I
g--2h4-2h4---------4-----2h4-2h4---------4--------I
d-------------------------------------------------I
a-------------------------------------------------I (2x)
E-------------------------------------------------I

A9                    A/E                 Bm

 Di ka na malulungkot, di ka na malulumbay
                       Dm                      A9
Andito na ako't sasagot sa suliranin mo sa buhay
                      A/E                    Bm
Di ka dapat mahihiyang sabihin ang porblema mo
                    Dm                   A9...A/E...A9....A/E....
Kaya tawagan nyo ako at tulungan ko kayo...

koro:
A9
Ilabas mo ang iyong saloobin
A/E                        Bm                Dm
Problema'y di dapat ilihim, dapat mong aminin
   A9                     A/E
Na ikaw ay walang mapapala kung lagi kang nakatanga
Bm                     Dm               A9....A/E...A9....A/E
Lumapit ka sa akin at tayo'y mag 2k2papa...

                      A/E                    Bm
Di ka dapat mahihiyang sabihin ang porblema mo
                    Dm                   A9...A/E...A9....A/E....
Kaya tawagan nyo ako at tulungan ko kayo...

koro:
A9
Ilabas mo ang iyong saloobin
A/E                        Bm                Dm
Problema'y di dapat ilihim, dapat mong aminin
   A9                     A/E
Na ikaw ay walang mapapala kung lagi kang nakatanga
Bm                     Dm               A9....A/E...A9....A/E[adlib]
Lumapit ka sa akin at tayo'y mag 2k2papa...

[koro]
A9  A/E....ulitin...
mag2k2papa..(4x)


Title: Rotnibur...
Sory don't  have a lyrics here.,..
Intro: G-C-D-C (2x)
verse: G-C-D-C (2x)
Chorus: G-C-D-C(hold)
Intro:


e---------------------------------------------------------I
b---------------------------------------------------------I
g---------------------------------------------------------I
d---------------------------------------------------------I
a---5-5-5-5--10-10-10-10--12-12-12-12--10-10-10-10--------I
E---3-3-3-3---8--8--8--8--10-10-10-10---8--8--8--8--------I
(play twice)

Verse:

e-----------------------------------------------------------I
b-----------------------------------------------------------I
g-----------------------------------------------------------I
d-----------------------------------------------------------I
a---5555555-10101010101010--12121212121212-10101010101010---I
E---3333333--8-8-8-8-8-8-8--10101010101010--8-8-8-8-8-8-8---I

e-----------------------------------------------------------I
b-----------------------------------------------------------I
g-----------------------------------------------------------I
d-----------------------------------------------------------I
a---5555555-10101010101010--12121212121212-10101010101010---I
E---3333333--8-8-8-8-8-8-8--10101010101010--8-8-8-8-8-8-8---I

Chorus:

e---------------------------------------------------------I
b---------------------------------------------------------I
g---------------------------------------------------------I
d---------------------------------------------------------I
a---5-5-5-5--10-10-10-10--12-12-12-12--10-(hold)----------I
E---3-3-3-3---8--8--8--8--10-10-10-10---8-(hold)----------I
                                       rotnibur....

2nd intro:

e-----------------------------------------------------------I
b-----------------------------------------------------------I
g-----------------------------------------------------------I
d-----------------------------------------------------------I
a---5555555-10101010101010--12121212121212-10101010101010---I
E---3333333--8-8-8-8-8-8-8--10101010101010--8-8-8-8-8-8-8---I

Verse:

e-----------------------------------------------------------I
b-----------------------------------------------------------I
g-----------------------------------------------------------I
d-----------------------------------------------------------I
a---5555555-10101010101010--12121212121212-10101010101010---I
E---3333333--8-8-8-8-8-8-8--10101010101010--8-8-8-8-8-8-8---I
(twice)

[repeat chorus]
adlib:

e-----------------------------------------------------------I
b-----------------------------------------------------------I
g-----------------------------------------------------------I
d-----------------------------------------------------------I
a---5555555-10101010101010--12121212121212-10101010101010---I
E---3333333--8-8-8-8-8-8-8--10101010101010--8-8-8-8-8-8-8---I
(4x)

Chorus:

e---------------------------------------------------------I
b---------------------------------------------------------I
g---------------------------------------------------------I
d---------------------------------------------------------I
a---5-5-5-5--10-10-10-10--12-12-12-12--10-10-10-10--------I
E---3-3-3-3---8--8--8--8--10-10-10-10---8--8--8--8--------I

e---------------------------------------------------------I
b---------------------------------------------------------I
g---------------------------------------------------------I
d---------------------------------------------------------I
a---5-5-5-5--10-10-10-10--12-12-12-12--10-(hold)----------I
E---3-3-3-3---8--8--8--8--10-10-10-10---8-(hold)----------I
                                       rotnibur...
coda:

rotnibur....(6x)

e----------------------------------------------------------------I
b----------------------------------------------------------------I
g----------------------------------------------------------------I
d----------------------------------------------------------------I
a---5-5-5-5--10-10-10-10--12-12-12-12--10-10-10-10---5-(hold)----I
E---3-3-3-3---8--8--8--8--10-10-10-10---8--8--8--8---3-(hold)----I


Title: Amboy...(commercial)...hehehe...

Chord patterN: G-D-Em-C...

Nahihirapan akow magtagalog...
Pero okay lang basta may maipit..
(hoy! tama na!...uwian na!...
huh?..ganun ba?)

Nahihirapan ako magtagalog...
(tama na!..
wag mong galawin!)

Nahihirapan akow magtagalog...
nahihirapan ako kumanta ng kantang ito...
nahihirapan akong ipaintindi sayo ang lahat ng sinasabi ko...
kasi eboy ako at the market boi...

Title: Atomic Bomb

Intro: E-B-G#m-A (2x)
E                         B
Mukha'y mo'y terrorista, nagpasabog ng bomba
G#m                  A
Bombang amoy basura kung nalalanghap mahihilo ka
E                         B
Ano ba'ng iyong tinatago bakit lagi kang nakayuko
G#m                           A
Ang iyong mukha'y nakakaduda siguro'y si Ben Laden ka...
G#m-A B    G#m-A B
Osama.......Aahh....

refrain:(power chords gamitin nyo para maganda tunog...and ung base na string ang pindutin...lupiT!)

G#m-A                       G#m-A
Ako'y nagtataka'y tumahimik ka
G#m-A                 G#m-A
Takot ka bang makilala
G#m-A                 G#m-A
Na ikaw pala ang may sala
G#m            A              B...
Mga kaibigan mo'y nag-alisan na

Chorus:(visaya)
 C#m   B           G#m-A
Utot,resulta sa panuhot
       C#m   B         G#m-A
maayo pang imu nang gipahilot
     C#m          B
kay delikado ta kung mukalat na
 G#m             A                B....
lisud iginhawa,niya malipong tang duha
             E-B-G#m-A...
kay baho ra ba
E                   B
Ang lakas ng tama, ikaw ba ang may pakana
G#m                         A
Di ka ba nakokonsyensya sa utot mo na sumisingaw
G#m-A  B  G#m-A    B....
Bahaw.....Nilalangaw....

refrain:
G#m-A                       G#m-A
Ako'y nagtataka'y tumahimik ka
G#m-A                 G#m-A
Takot ka bang makilala
G#m-A                 G#m-A
Na ikaw pala ang may sala
G#m            A              B...
Mga kaibigan mo'y nag-alisan na

Chorus:
 C#m   B           G#m-A
Utot,resulta sa panuhot
       C#m   B         G#m-A
maayo pang imu nang gipahilot
     C#m          B
kay delikado ta kung mukalat na
 G#m             A                B....
lisud iginhawa,niya malipong tang duha
             (adlib)
kay baho ra ba

(pattern sa adlib....chorus chords....C#m-B-G#m-A...)

Chorus:
 C#m   B           G#m-A
Utot,resulta sa panuhot
       C#m   B         G#m-A
maayo pang imu nang gipahilot
     C#m          B
kay delikado ta kung mukalat na
 G#m             A                B....
lisud iginhawa,niya malipong tang duha
             E-B-G#m-A
kay baho ra ba
              E-B-G#m-A
Baka mapoison ka...
       E-B-G#m....A....
Amoy paa....


Title: Sana
Intro: G-Em9-C9-D (2x)
G                Em9                      C9
Di ko talaga alam kung bakit na naman ganyan
D
Mata ay luhaan
G                   Em9                       C9
Di ba't sabi ko sa'yo wag na wag ka nang paloloko
D
Sa boyfriends mo na mukhang gago
Refrain:
C9           Bm      C              Bm
Di mo ba nakikita at di ka ba nagsasawa
C9             Bm         C9          D
Ano ba ang nasa kanya na sa akin ay wala
Koro:
G                 Em9            C9   D                   
Sana ay yong mapansin ang sasabihin sa'yo ay pagtingin
G                   Em9               C9
Kahit na saktan ka niya wag kang mag-alala
D                       G-Em9-C9-D
Andito lang ako para sa'yo...
G                   Em9                          C9
Di ko maintindihan kung bakit siya ang iyong nagustuhan
D
Kahit ika'y sinasaktan
G                  EDm9                         C9
Ako nama'y nagtataka bakit sa'yo ako'y naging tanga
D
Kahit sa'yo'y walang pag-asa
Refrain:
C9           Bm      C              Bm
Di mo ba nakikita at di ka ba nagsasawa
C9             Bm         C9          D
Ano ba ang nasa kanya na sa akin ay wala
Koro:
G                 Em9            C9   D                   
Sana ay yong mapansin ang sasabihin sa'yo ay pagtingin
G                   Em9               C9
Kahit na saktan ka niya wag kang mag-alala
D                       adlib
Andito lang ako para sa'yo...
[aDLIB...G-Em9-C9-D pattern]
Refrain:(isang bagsak sa bawat chords)
C9           Bm      C              Bm
Di mo ba nakikita at di ka ba nagsasawa
C9             Bm         C9          D
Ano ba ang nasa kanya na sa akin ay wala
Koro:
G                 Em9            C9   D                   
Sana ay yong mapansin ang sasabihin sa'yo ay pagtingin
G                   Em9               C9
Kahit na saktan ka niya wag kang mag-alala
D                       G
Andito lang ako para sa'yo...
Em9       C9
para sa'yo
D                      G-Em9
Andito lang ako para sayo
         C9
Para sa'yo
D                      G.....
Andito lang ako para sa'yo

Title: Seloso

Intro: G-D-Bm-C (2x)

G               D        Bm            C
Ang labi mo'y nakangiti pag kasama mo palagi
G              D           Bm           C
To the max ang lambingan para di ka na bibitawan
Bm          C       Bm            C
Ayoko nang ganito, nagseselos na ako..
G        D            Bm            C
Oo nga mayaman siya, malakas naman mambola
G               D            Bm            C
Mahirap lang naman ako pero pag-ibig ko'y totoo
Bm          C       Bm             C
Ayoko nang ganito, nagseselos na ako

Chorus:
           G      D       Bm           C
Bumalik ka na sa akin at ulitin natin ang lahat
   G             D          Bm            C
Pag-ibig mo't pag-ibig ko'y hinding-hindi magbabago
 Bm           C          Bm               C
Patawad kung nagkamali, matatanggap pa ba muli
    Am   Bm    C      D       G-D-Bm-C
Ang puso ko ay nasasabik sa'yo...
G               D             Bm           C
Hindi ba't tayo nung una ang lakas mong tumawa
 G               D            Bm     C
Abot langit ang saya ba't sa iba ka pa sumama
Bm        C       Bm            C
Ayoko ng ganito, nagseselos na ako

Chorus:
           G      D       Bm           C
Bumalik ka na sa akin at ulitin natin ang lahat
   G             D          Bm            C
Pag-ibig mo't pag-ibig ko'y hinding-hindi magbabago
 Bm           C          Bm               C
Patawad kung nagkamali, matatanggap pa ba muli
    Am   Bm    C      D       [adlib]
Ang puso ko ay nasasabik sa'yo...(sabik)

adlib....G-D-Bm-C(4x)

[chorus]3x

   G-D-Bm
sayo....
C           (G-D-Bm-C)3x
 Bumalik ka na...

....Am-Bm-C-D...G(hold)


Title: Textmate

Intro: C-F (2x)

C            F           C                  F
Wag ka nang malulungkot asahan mong andito lang ako
C            F           C               F
Wag ka nang malulumbay, nakahanda akong dumamay

refrain:
G                     F
Di mo na nakailangan pang
G            F
Umasa pa sa iba

Chorus:
C                      F
Itext mo lang ako at darating ako (darating ako)
G                       F
Tipid ka na my instant friend ka pa, friend ka pa...
C                      F
Itext mo lang ako at darating ako (darating ako)
G               F              C-F-C-F
Ako'y laging nakahanda para sayo...

C         F           C            F
Tahan na sa pagluha, andito na ako tayo ay magsaya
C            F           C               F
Wag ka nang malulumbay, nakahanda akong dumamay

refrain:
G                     F
Di mo na nakailangan pang
G            F
Umasa pa sa iba

Chorus:
C                      F
Itext mo lang ako at darating ako (darating ako)
G                       F
Tipid ka na my instant friend ka pa, friend ka pa...
C                      F
Itext mo lang ako at darating ako (darating ako)
G               F              [adlib]C-F-C-F....G-F...
Ako'y laging nakahanda para sayo...

[chorus]2x...
Related for Tenseventeen tab