Song name
# A B C D E F G H I J K L M N O P Q R S T U V W X Y Z

108 - Three Hundred Liars tab

Band: 108
song: Three Hundred Liars

Tabbed by Amy aka oceanlife2me on UG (i kno gay username)

its a pretty easy song super easy!!

Intro:
|-------------------------------------|
|--15-9-10---9-10-16-9-10-9-16-15-15--|    Repeat
|----------7--------------------------|   5x or 6x
|-------------------------------------|
|-------------------------------------|
|-------------------------------------|


Riff A
|------------------------------------|
|--15151515151515151515151515151515--|  <--- those are 15 not 1 and 5
|------------------------------------|
|------------------------------------|
|------------------------------------|  
|------------------------------------|


Riff B
|--------------------------|
|--1616161616161616161616--|  <---those are 16 not 1 and 6
|--------------------------|
|--------------------------|
|--------------------------|
|--------------------------|


Riff C
|----------------|
|--181818181818--|  <---those are 18 not 1 and 8
|----------------|
|----------------|
|----------------|
|----------------|

repeat riff A, B, C 4x


|-------------------------|
|-------------------------|
|-------------------------|
|-0-1-2-0-4-3---0-1-2-0-0-|
|-0-1-2-0-4-3---0-1-2-0-0-|
|-0-1-2-0-4-3---0-1-2-0-0-|

|------------------------|
|------------------------|
|------------------------|
|-0-1-2-0-4-3--0-7-5-0-0-|
|-0-1-2-0-4-3--0-7-5-0-0-|
|-0-1-2-0-4-3--0-7-5-0-0-|


|------------------------------------|
|-15-9-10---9-10-16-9-10-9-16-15-15--|
|---------7--------------------------| 5x or 6x
|------------------------------------|
|------------------------------------|
|------------------------------------|

solo thing 
dont have it yet


|---------------|
|---------------|
|---------------|
|-0-1-2-0-4-3---|
|-0-1-2-0-4-3---|
|-0-1-2-0-4-3---|


|-------------------------------------|
|--15-9-10---9-10-16-9-10-9-16-15-15--|    
|----------7--------------------------|   repeat untill song
|-------------------------------------|      song ends
|-------------------------------------|
|-------------------------------------|


hope i got it right, as soon as i got the solo or any one helps me with it ill 
post it up as soon as posible

laterz plez comment ane rate X_^
Tap to rate this tab
 
# A B C D E F G H I J K L M N O P Q R S T U V W X Y Z