Song name
# A B C D E F G H I J K L M N O P Q R S T U V W X Y Z

10cc - I Bought A Flat Guitar Tutor tab

Help us improve GuitareTab! Take a short survey!
10cc
I Bought A Flat Guitar Tutor
Tabbed by Badgod23
Email m0nkey_fhuk@hotmail.com

These chords are totally accurate, save maybe for one or two
alternate chord voicings in the original.
Also, for the sake of learning the structure (which let's face it,
isn't the easiest you're likely to find!), I've included lyrics
and chords at the bottom.

Enjoy!

Intro

   |A|        |F#m7|        |B7|    |E7#9|   
e|-------------------------|----------------|
B|----5----------10--------|----10---8--8---|
G|----6----------9---------|----8----7--7---|
D|----7---------------11-10|-9-------6--6---|
A|-0------7-8-9------------|---------7--7---|
E|-------------------------|----------------|

   |A|        |F#m7|   |B|  |F7/9||E7/9|     
e|-------------------|---7----8----7---|
B|----5---------10/--|---7----8----7---|
G|----6---------9/---|---8----8----7---|
D|----7--------------|-9------7----6---|
A|-0------7-8-9------|--------8----7---|
E|-------------------|-----------------|

Verse

  |A|  |Ab|  |Abdim||Bdim|  |E|
e|-5-----4---|------------|--0----|
B|-5-----4---|--3-----6---|--0----|
G|-6-----5---|--4-----7---|--1----|
D|-7-----6---|--3-----6---|--2----|
A|-7-----6---|--x-----x---|--2----|
E|-5-----4---|--4-----7---|--0----|

  |D9|    |C|     |Bsus4-B-Bsus2|  |A7|   |Amaj7|
e|------|-------|----------------|--0----|--0----|
B|-5----|--5----|--5-4-2-4--5-4--|--2----|--2----|
G|-5----|--5----|--4-4-4-4--4-4--|--0----|--1----|
D|-4----|--5----|--4-4-4-4--4-4--|--2----|--2----|
A|-5----|--3----|--2-2-2-2--2-2--|--0----|--0----|
E|------|-------|----------------|-------|-------|

  |E|    |Am|   |G|    |Gaug| |G#aug||C#|   |A|  |B|
e|-0----|-0----|-3----|-3----|-4----|-4----|-5----7--|
B|-0----|-1----|-3----|-4----|-5----|-6----|-5----7--|
G|-1----|-2----|-4----|-4----|-5----|-6----|-6----8--|
D|-2----|-2----|-5----|-5----|-6----|-6----|-7----9--|
A|-2----|-0----|-5----|------|------|-4----|-7----9--|
E|-0----|------|-3----|------|------|------|-5----7--|

  |E|    |Ab|    |C|   |C/B|  |C/Bb|  
e|-0----|-4----|--0-----0----|-0-----------|
B|-0----|-4----|--1-----1----|-1----3---1--|
G|-1----|-5----|--0-----0----|-0----0---0--|
D|-2----|-6----|--2-----2----|-2----2---2--|
A|-2----|-6----|--3-----2----|-1----1---1--|
E|-0----|-4----|-------------|-------------|

    |Bm| |B/A|
e|---2----2--2--|----------------------|
B|---3----3--3--|----------------------|
G|---4----4--4--|----------------------|
D|---4----4--4--|--------------------0-|
A|---2----0--0--|------------0--2-4----|
E|--------------|-4---0-2--4-----------|

Repeat Verse chords over guitar solo
Then finish on...

   |Cadd9|
e|--3-----|
B|--3-----|
G|--0-----|
D|--2-----|
A|--3-----|
E|--------|


|A|        |Ab|
I bought a flat

|Abdim|        |Bdim|    |E|
  Diminished responsibility

         |D9|             |C|
You're de ninth person to see

  |Bsus4-B-Bsus2|    |A7|
To be suspended in a seventh

|Amaj7|        |E|
Major catastrophe

      |Am|            |G|
It's a minor point but gee

|Gaug|          |G#aug|   
Augmented by the sharpness of your

|C#|
See what I'm going through

|A|   |B|     |E|
 Ay to be with you

    |Ab|        |C| |C/B|
In a flat by the sea 

|C/Bb| |Bm| |Bm/A|

Repeat
Related for I Bought A Flat Guitar Tutor tab