Song name
# A B C D E F G H I J K L M N O P Q R S T U V W X Y Z

112 - Dont Hate Me tab

artist:112
song: Don't Hate Me
Album: Part III
Tabbed by: Johnny V. 

standard tuning(e a d g b e)
   Intro and chorus

   E----------7--------------------5----5---------------------
   B------------7----------------5---5--5---------------------
   G--------7-----7---7--------------5--5---------------------
   D------9---------9----------7-----7--7---------------------
   A----9--------------------7--------------------------------
   E--7--------------------5----------------------------------

   E----------3--------------------5--6-----------------------
   B--------3---3----------------5----6-----------------------
   G--------------3---3------------5--6-----------------------
   D------5---------5----------7------8-----------------------
   A----5--------------------7--------8-----------------------
   E--3--------------------5----------6-----------------------

   repeat from beginning of song to end and fade at the end.
Tap to rate this tab
# A B C D E F G H I J K L M N O P Q R S T U V W X Y Z