Song name
# A B C D E F G H I J K L M N O P Q R S T U V W X Y Z

112 - Cupid tab

here is my version of cupid. sorry if this doesn't sound like the original. but still sounds 
good and this is how i play it.
you can add a capo 2 or 3 but i play it with no capo. please rate. :))

cupid
-112

standard tuning
capo: none, 2, 3 it depends :)


intro:

|----------3--------------2h3-2--------------2-----------2----3----3---|
|--------3---3----------3-------3----------3----3--------3-T--3------3-|
|------0-------0------2-----------2------0--------0--------A-----------|
|----2-----------2--0---------------0----------------------P-----------|
|--3-----------------------------------2------------2--3------3--3-----|
|----------------------------------------------------------------------|

|----------0--------------2h3-2--------------2-----------2----3----3---|
|--------3---3----------3-------3----------3----3--------3-T--3----3---|
|------0-------0------2-----------2------0--------0--------A-----------|
|----2-----------2--0---------------0----------------------P-----------|
|--3-----------------------------------2------------2--3------3--3-----|
|----------------------------------------------------------------------|


verse 1:

|----------3--------------2h3-2--------------2-----------2----3----3---|
|--------3---3----------3-------3----------3----3--------3-T--3------3-|
|------0-------0------2-----------2------0--------0--------A-----------|
|----2-----------2--0---------------0----------------------P-----------| x3
|--3-----------------------------------2------------2--3------3--3-----|
|----------------------------------------------------------------------|

|----------3--------------2h3-2--------------2-----------2----3----3-3-|
|--------3---3----------3-------3----------3----3--------3-T--3----3-3-|
|------0-------0------2-----------2------0--------0--------A-----------|
|----2-----------2--0---------------0----------------------P-----------|
|--3-----------------------------------2------------2--3------3--3---3-|
|----------------------------------------------------------------------|


chorus:

|--------------------------------2------------2--3-----3--3-|
|----3-T-3---3-T-3------3-----3--3-T-3---3----3--3-----3--3-|
|----0-A-0---0-A-0----2---2s4------A-0---0------------------|
|----2-P-2---2-P-2--0--------------P------------------------| x2
|--3-------3---------------------2---2-2----3----3--3-----3-|
|-----------------------------------------------------------|


verse 2:

|----------3--------------2h3-2--------------2-----------2----3----3---|
|--------3---3----------3-------3----------3----3--------3-T--3------3-|
|------0-------0------2-----------2------0--------0--------A-----------|
|----2-----------2--0---------------0----------------------P-----------|
|--3-----------------------------------2------------2--3------3--3-----|
|----------------------------------------------------------------------|

|----------0-----------------------2----------------2---3----3----|
|--------3---3----------3---0-0-3--3--T--3-----3----3-T-3------3--|
|------0-------0------2---2-----------A--0-----0------A-----------|
|----2-----------2--0-----------------P---------------P-----------|
|--3-------------------------------2-----2--2-----3-----3--3------|
|-----------------------------------------------------------------|

|----------3--------------2h3-2--------------2-----------2----3----3---|
|--------3---3----------3-------3----------3----3--------3-T--3------3-|
|------0-------0------2-----------2------0--------0--------A-----------|
|----2-----------2--0---------------0----------------------P-----------|
|--3-----------------------------------2------------2--3------3--3-----|
|----------------------------------------------------------------------|

|----------3--------------2h3-2--------------2-----------2----3----3-3-|
|--------3---3----------3-------3----------3----3--------3-T--3----3-3-|
|------0-------0------2-----------2------0--------0--------A-----------|
|----2-----------2--0---------------0----------------------P-----------|
|--3-----------------------------------2------------2--3------3--3---3-|
|----------------------------------------------------------------------|


chorus:

|--------------------------------2------------2--3-----3--3-|
|----3-T-3---3-T-3------3-----3--3-T-3---3----3--3-----3--3-|
|----0-A-0---0-A-0----2---2s4------A-0---0------------------|
|----2-P-2---2-P-2--0--------------P------------------------| x2
|--3-------3---------------------2---2-2----3----3--3-----3-|
|-----------------------------------------------------------|


bridge:

|----------3--------------2h3-2--------------2-----------2----3----3---|
|--------3---3----------3-------3----------3----3--------3-T--3------3-|
|------0-------0------2-----------2------0--------0--------A-----------|
|----2-----------2--0---------------0----------------------P-----------| x2
|--3-----------------------------------2------------2--3------3--3-----|
|----------------------------------------------------------------------|


chorus:

|--------------------------------2------------2--3-----3--3-|
|----3-T-3---3-T-3------3-----3--3-T-3---3----3--3-----3--3-|
|----0-A-0---0-A-0----2---2s4------A-0---0------------------|
|----2-P-2---2-P-2--0--------------P------------------------| x2
|--3-------3---------------------2---2-2----3----3--3-----3-|
|-----------------------------------------------------------|


outro:
                                                           STRUMMED
|----------3--------------2h3-2--------------2-----------|--2--3-----3--|
|--------3---3----------3-------3----------3----3--------|--3--3-----3--|
|------0-------0------2-----------2------0--------0------|--0--0-----0--|
|----2-----------2--0---------------0--------------------|--0--0-----0--|
|--3-----------------------------------2------------2--3-|--3--3-----2--|
|--------------------------------------------------------|--x--x-----3--|


legend:

h - hammer
s - slide
Tap to rate this tab
 
# A B C D E F G H I J K L M N O P Q R S T U V W X Y Z