Song name
# A B C D E F G H I J K L M N O P Q R S T U V W X Y Z

112 - Peaches N Cream tab

---7---7------------7-------------|
-----------8---5------------------|
----------------------------------|
----------------------------------|
----------------------------------|
----------------------------------|


---7---7-------10--7--------------|
-----------8----------------------|
----------------------------------|
----------------------------------|
----------------------------------|
----------------------------------|

----------------------------------|
---7---7---7---8---10-------------|   (x2)
----------------------------------|
----------------------------------|
----------------------------------|
----------------------------------|
Tap to rate this tab
 
# A B C D E F G H I J K L M N O P Q R S T U V W X Y Z