12 Dirty Bullets - Rock N Roll Pretty Boys tab

12 DIRTY BULLETS ARE AN AWESOME BAND I SAW THEM LAST YEAR AT HOP FARM AND THEY WERE 
BRILLIANT (by the way this is my first tab so comments are welcome)


CHORDS

 C       Am       F1       G1       F2      G2

e]0      e]0      e]1      e]3      e]1     e]3
B]1      B]1      B]1      B]3      B]1     B]3
G]0      G]2      G]2      G]0      G]2     G]4
D]2      D]2      D]3      D]0      D]3     D]5
A]3      A]0      A]X      A]2      A]3     A]5
E]X      E]X      E]X      E]3      E]1     E]3


INTRO/VERSE

(THIS IS ACCORDING TO HOW MANY BARS THE CHORD IS PLAYED)

 C C Am Am F1 F1 C C   x2

CHORUS

 Am Am F2 G2 (STRUMMED)
 Am Am       (STRUMMED)
 F2 G2 F2 G2  (STRUM DOWN AND LET RING)

 C C Am Am F1 F1 C C (PM)

ELECTRIC SORT OF FILL IN

e]--------------8~~----12-10-8---|
B]10-10-10-8-10----------------10|
G]-------------------------------|
D]-------------------------------|  X2
A]-------------------------------|
E]-------------------------------|


e]-------------------------------|
B]10-10-10-8-10------------------|
G]--------------9~~----9-10-9----|
D]-------------------------------|  X2
A]-------------------------------|
E]-------------------------------|
Tap to rate this tab
 
# A B C D E F G H I J K L M N O P Q R S T U V W X Y Z