Guitaretab - guitar tabs
Song name
# A B C D E F G H I J K L M N O P Q R S T U V W X Y Z

12 Stones - Arms Of A Stranger tab

12 Stones Ė Arms of a Stranger
Anthem For The Underdog

Drop C

- Acoustic parts are missing the higher notes of the chord, so its just the basic part 
the hammer-on/pull-off parts from fret 12 are guessed.
- Solo is incomplete. If you know/have it, send it to me via message or comment and I 
put it in and give you the credit (obviously).
- Lead guitar in the chorus is missing. Iíll listen to it more and submit it when I have time.

VERSE ONE

  (Acoustic)
D|---------------------------------------------------------------------------|
A|---------------------------------------------------------------------------|
F|---------------------------------------------------------------------------|
C|---5-5-5--7-7-7--9-9-9--12-12-12h14---5-5-5--7-7-7--9-9-9h12p11------------|
G|---5-5-5--7-7-7--9-9-9--12-12-12h14---5-5-5--7-7-7--9-9-9--9--9------------|
C|---5-5-5--7-7-7--9-9-9--12-12-12h14---5-5-5--7-7-7--9-9-9--9--9------------|

     I came home early to see you...    Iíve been away for so long now...

D|---------------------------------------------------------------------------|
A|---------------------------------------------------------------------------|
F|---------------------------------------------------------------------------|
C|---5-5-5--7-7-7--9-9-9--12-12-12h14---5-5-5--7-7-7---2-222222--------------|
G|---5-5-5--7-7-7--9-9-9--12-12-12h14---5-5-5--7-7-7---2-222222--------------|
C|---5-5-5--7-7-7--9-9-9--12-12-12h14---5-5-5--7-7-7---2-222222--------------|
                                                         ......
     But as I walked through the door...to find that youíre not alone...

CHORUS

  (Both Guitars)
D|---------------------------------------------------------------------------|
A|---------------------------------------------------------------------------|
F|---------------------------------------------------------------------------|
C|---5-5-xx-2-2-xx-9-9-xx-7-9-7-5---5-5-xx-2-2-xx-9-9-xx-7-9-7-5-------------|
G|---5-5-xx-2-2-xx-9-9-xx-7-9-7-5---5-5-xx-2-2-xx-9-9-xx-7-9-7-5-------------|
C|---5-5-xx-2-2-xx-9-9-xx-7-9-7-5---5-5-xx-2-2-xx-9-9-xx-7-9-7-5-------------|

     When will I break...           Itís your mistake...

  (Lead Guitar)
D|---------------------------------------------------------------------------|
A|---------------------------------------------------------------------------|
F|---------------------------------------------------------------------------|
C|---------------------------------------------------------------------------|
G|---------------------------------------------------------------------------|
C|---------------------------------------------------------------------------|
 |                                                                           |
 |(Rhythm)                                                                   |
D|---------------------------------------------------------------------------|
A|---------------------------------------------------------------------------|
F|---------------------------------------------------------------------------|
C|---5-5-5--2-2-2--9-9-9--12-12-12h14---5-5-5--7-7-7--9-9~-------------------|
G|---5-5-5--2-2-2--9-9-9--12-12-12h14---5-5-5--7-7-7--9-9~-------------------|
C|---5-5-5--2-2-2--9-9-9--12-12-12h14---5-5-5--7-7-7--9-9~-------------------|

     Everything I thought was you...    Itís in the arms of a stranger...

VERSE TWO

  (Lead Guitar)
D|-------------9\2-----------------------------------------------------------|
A|--5b----------------------5b-3~-------------------------14--14-14h15p14----|
F|-------------------------7----------------5/6\0-------14--14-----------14~-|
C|---------------------------------------------------------------------------|
G|---------------------------------------------------------------------------|
C|---------------------------------------------------------------------------|
 |                                                                           |
 |(Acoustic)                                                                 |
D|---------------------------------------------------------------------------|
A|---------------------------------------------------------------------------|
F|---------------------------------------------------------------------------|
C|---5-5-5--7-7-7--9-9-9--12-12-12h14---5-5-5--7-7-7--9-9-9h12p11------------|
G|---5-5-5--7-7-7--9-9-9--12-12-12h14---5-5-5--7-7-7--9-9-9--9--9------------|
C|---5-5-5--7-7-7--9-9-9--12-12-12h14---5-5-5--7-7-7--9-9-9--9--9------------|

     The days just seem so much...      It never seems to get better...


  (Lead Guitar)
D|---------------------------------------------------------------------------|
A|-----------9\6-------------------------------------------------------------|
F|-------------------------8-10b~-------------13b~---------------------------|
C|---------------------------------------------------------------------------|
G|---------------------------------------------------------------------------|
C|---------------------------------------------------------------------------|
 |                                                                           |
 |(Acoustic)                                                                 |
D|---------------------------------------------------------------------------|
A|---------------------------------------------------------------------------|
F|---------------------------------------------------------------------------|
C|---5-5-5--7-7-7--9-9-9--12-12-12h14---5-5-5--7-7-7---2-222222--------------|
G|---5-5-5--7-7-7--9-9-9--12-12-12h14---5-5-5--7-7-7---2-222222--------------|
C|---5-5-5--7-7-7--9-9-9--12-12-12h14---5-5-5--7-7-7---2-222222--------------|
                                                         ......

     Iíll try to hold it together...    The day you fade from my memory...

CHORUS

  (Both Guitars)
D|---------------------------------------------------------------------------|
A|---------------------------------------------------------------------------|
F|---------------------------------------------------------------------------|
C|---5-5-xx-2-2-xx-9-9-xx-7-9-7-5---5-5-xx-2-2-xx-9-9-xx-7-9-7-5-------------|
G|---5-5-xx-2-2-xx-9-9-xx-7-9-7-5---5-5-xx-2-2-xx-9-9-xx-7-9-7-5-------------|
C|---5-5-xx-2-2-xx-9-9-xx-7-9-7-5---5-5-xx-2-2-xx-9-9-xx-7-9-7-5-------------|

     When will I break...           Itís your mistake...

  (Lead Guitar)
D|---------------------------------------------------------------------------|
A|---------------------------------------------------------------------------|
F|---------------------------------------------------------------------------|
C|---------------------------------------------------------------------------|
G|---------------------------------------------------------------------------|
C|---------------------------------------------------------------------------|
 |                                                                           |
 |(Rhythm)                                                                   |
D|---------------------------------------------------------------------------|
A|---------------------------------------------------------------------------|
F|---------------------------------------------------------------------------|
C|---5-5-5--2-2-2--9-9-9--12-12-12h14---5-5-5--7-7-7--9-9-9-9----------------|
G|---5-5-5--2-2-2--9-9-9--12-12-12h14---5-5-5--7-7-7--9-9-9-9----------------|
C|---5-5-5--2-2-2--9-9-9--12-12-12h14---5-5-5--7-7-7--9-9-9-9----------------|

     Everything I thought was you...    Itís in the arms of a stranger...


SOLO
[ Tab from: http://www.guitaretab.com/numeric/12-stones/112097.html ]
  (Lead Guitar)
D|---------------------------------------------------------------------------|
A|---------------------------------------------------------------------------|
F|---------------------------------------------------------------------------|
C|---------------------------------------------------------------------------|
G|---------------------------------------------------------------------------|
C|---------------------------------------------------------------------------|
 |                                                                           |
 |(Rhythm)                                                                   |
D|---------------------------------------------------------------------------|
A|---------------------------------------------------------------------------|
F|---------------------------------------------------------------------------|
C|---------------------------------------------------------------------------|
G|---------------------------------------------------------------------------|
C|---------------------------------------------------------------------------|

CHORUS

  (Lead Guitar)
D|---------------------------------------------------------------------------|
A|---------------------------------------------------------------------------|
F|---------------------------------------------------------------------------|
C|---------------------------------------------------------------------------|
G|---------------------------------------------------------------------------|
C|---------------------------------------------------------------------------|
 |                                                                           |
 |(Rhythm)                                                                   |
D|---------------------------------------------------------------------------|
A|---------------------------------------------------------------------------|
F|---------------------------------------------------------------------------|
C|---5-5-5--2-2-2--9-9-9-9-9------------5-5-5--2-2-2--9~---------------------|
G|---5-5-5--2-2-2--9-9-9-9-9------------5-5-5--2-2-2--9~---------------------|
C|---5-5-5--2-2-2--9-9-9-9-9------------5-5-5--2-2-2--9~---------------------|

     When will I break...               Itís your mistake...

  (Lead Guitar)
D|---------------------------------------------------------------------------|
A|---------------------------------------------------------------------------|
F|---------------------------------------------------------------------------|
C|---------------------------------------------------------------------------|
G|---------------------------------------------------------------------------|
C|---------------------------------------------------------------------------|
 |                                                                           |
 |(Rhythm)                                                                   |
D|---------------------------------------------------------------------------|
A|---------------------------------------------------------------------------|
F|---------------------------------------------------------------------------|
C|---5-5-5--2-2-2--9-9-9--12-12-12h14---5-5-5--7-7-7--2-22222----------------|
G|---5-5-5--2-2-2--9-9-9--12-12-12h14---5-5-5--7-7-7--2-22222----------------|
C|---5-5-5--2-2-2--9-9-9--12-12-12h14---5-5-5--7-7-7--2-22222----------------|
                                                        .....

     Everything I thought was you...    Itís in the arms of a stranger...

SECOND CHORUS

  (Both Guitars)
D|---------------------------------------------------------------------------|
A|---------------------------------------------------------------------------|
F|---------------------------------------------------------------------------|
C|---5-5-xx-2-2-xx-9-9-xx-7-9-7-5---5-5-xx-2-2-xx-9-9-xx-7-9-7-5-------------|
G|---5-5-xx-2-2-xx-9-9-xx-7-9-7-5---5-5-xx-2-2-xx-9-9-xx-7-9-7-5-------------|
C|---5-5-xx-2-2-xx-9-9-xx-7-9-7-5---5-5-xx-2-2-xx-9-9-xx-7-9-7-5-------------|

     When will I break...           Itís your mistake...

  (Lead Guitar)
D|---------------------------------------------------------------------------|
A|---------------------------------------------------------------------------|
F|---------------------------------------------------------------------------|
C|---------------------------------------------------------------------------|
G|---------------------------------------------------------------------------|
C|---------------------------------------------------------------------------|
 |                                                                           |
 |(Rhythm)                                                                   |
D|---------------------------------------------------------------------------|
A|---------------------------------------------------------------------------|
F|---------------------------------------------------------------------------|
C|---5-5-5--2-2-2--9-9-9--12-12-12h14---5-5-5--7-7-7--9-9-9------------------|
G|---5-5-5--2-2-2--9-9-9--12-12-12h14---5-5-5--7-7-7--9-9-9------------------|
C|---5-5-5--2-2-2--9-9-9--12-12-12h14---5-5-5--7-7-7--9-9-9------------------|

     Everything I thought was you...    Itís in the arms of a stranger...

LAST CHORUS

  (Lead Guitar)
D|---------------------------------------------------------------------------|
A|---------------------------------------------------------------------------|
F|---------------------------------------------------------------------------|
C|---------------------------------------------------------------------------|
G|---------------------------------------------------------------------------|
C|---------------------------------------------------------------------------|
 |                                                                           |
 |(Rhythm)                                                                   |
D|---------------------------------------------------------------------------|
A|---------------------------------------------------------------------------|
F|---------------------------------------------------------------------------|
C|---5-5-5--2-2-2-xx-9-9-9-9-9----------5-5-5--2-2-2-xx-9-9-9-9-9------------|
G|---5-5-5--2-2-2-xx-9-9-9-9-9----------5-5-5--2-2-2-xx-9-9-9-9-9------------|
C|---5-5-5--2-2-2-xx-9-9-9-9-9----------5-5-5--2-2-2-xx-9-9-9-9-9------------|

     When will I break...               Itís your mistake...

  (Lead Guitar)
D|---------------------------------------------------------------------------|
A|---------------------------------------------------------------------------|
F|---------------------------------------------------------------------------|
C|---------------------------------------------------------------------------|
G|---------------------------------------------------------------------------|
C|---------------------------------------------------------------------------|
 |                                                                           |
 |(Rhythm)                                                                   |
D|---------------------------------------------------------------------------|
A|---------------------------------------------------------------------------|
F|---------------------------------------------------------------------------|
C|---5-5-5--2-2-2--9-9-9-9-9------------5-5-5--7-7-7--9-9~-------------------|
G|---5-5-5--2-2-2--9-9-9-9-9------------5-5-5--7-7-7--9-9~-------------------|
C|---5-5-5--2-2-2--9-9-9-9-9------------5-5-5--7-7-7--9-9~-------------------|

     Everything I thought was you...    Itís in the arms of a stranger...

OUTRO

  (Acoustic)
D|---------------------------------------------------------------------------|
A|---------------------------------------------------------------------------|
F|---------------------------------------------------------------------------|
C|---5-5-5--7-7-7--9-9-9--12-12-12h14---5-5-5--7-7-7--9-9~-------------------|
G|---5-5-5--7-7-7--9-9-9--12-12-12h14---5-5-5--7-7-7--9-9~-------------------|
C|---5-5-5--7-7-7--9-9-9--12-12-12h14---5-5-5--7-7-7--9-9~-------------------|

     I came home early to see you...    Youíre in the arms of a stranger...
Related for Arms Of A Stranger tab