Song name
# A B C D E F G H I J K L M N O P Q R S T U V W X Y Z

12 Stones - My Life tab

Gtr I (D A D G B E) - 'Untitled'
Gtr II (D A D G B E) - 'Untitled'
Gtr III (D A D G B E) - 'Untitled'


 Intro
  Q=80
  (D5)                      (D5)               F5
 4/4
  Gtr I
  E S S E S E S S S E S S   E  S S E S E S S S E E
|-------------------------|------------------------|
|-------------------------|------------------------|
|---2---3-2---2-----3-2---|----2---3-2---2-----2-2-|
|-----0---------0-------0-|------0---------0-------|
|-------------------------|------------------------|
|-0---------0-----0-------|-0----------0-----0-----|
|
| Gtr II
| W                         H.                 E E
|-------------------------|------------------------|
|-------------------------|------------------------|
|-------------------------|------------------------|
|-------------------------|--------------------3-3-|
|-------------------------|--------------------3-3-|
|-------------------------|--------------------3-3-|


  (D5)                      (D5)               F5
  E S S E S E S S S E S S   E  S S E S E S S S E E
|-------------------------|------------------------|
|-------------------------|------------------------|
|---2---3-2---2-----3-2---|----2---3-2---2-----2-2-|
|-----0---------0-------0-|------0---------0-------|
|-------------------------|------------------------|
|-0---------0-----0-------|-0----------0-----0-----|
|
| W                         H.                 E E
|-------------------------|------------------------|
|-------------------------|------------------------|
|-------------------------|------------------------|
|-------------------------|--------------------3-3-|
|-------------------------|--------------------3-3-|
|-------------------------|--------------------3-3-|


 Verse
  $
  (D5)      (C6sus2)        (Bbmaj7)  (C6sus2)
  E S S E S E S S S E S S   E S S E S E S S S E S S
|-------------------------|-------------------------|
|-------------------------|-------------------------|
|---2---3-2---2-----3-2---|---2---3-2---2-----3-2---|
|-----0---------0-------0-|-----0---------0-------0-|
|-----------3-----3-------|-1---------3-----3-------|
|-0-----------------------|-------------------------|


  (D5)      (C6sus2)        (Bbmaj7)  (C6sus2)
  E S S E S E S S S E S S   E S S E S E S S S S S S S
|-------------------------|---------------------------|
|-------------------------|---------------------------|
|---2---3-2---2-----3-2---|---2---3-2---2-----3-2-----|
|-----0---------0-------0-|-----0---------0-------0---|
|-----------3-----3-------|-1---------3-----3-------3-|
|-0-----------------------|---------------------------|


  (D5)      (C6sus2)        (Bbmaj7)  (C6sus2)
  E S S E S E S S S E S S   E S S E S E S S S E S S
|-------------------------|-------------------------|
|-------------------------|-------------------------|
|---2---3-2---2-----3-2---|---2---3-2---2-----3-2---|
|-----0---------0-------0-|-----0---------0-------0-|
|-----------3-----3-------|-1---------3-----3-------|
|-0-----------------------|-------------------------|


  (D5)      (C6sus2)        (Bbmaj7)   (C6sus2)
  E S S E S E S S S E S S   E  S S E S E S S S S S S S
|-------------------------|----------------------------|
|-------------------------|----------------------------|
|---2---3-2---2-----3-2---|----2---3-2---2-----3-2-----|
|-----0---------0-------0-|------0---------0-------0---|
|-----------3-----3-------|-1----------3-----3-------3-|
|-0-----------------------|----------------------------|
|
| Gtr II
| W                         H.                 S E   S
|-------------------------|----------------------------|
|-------------------------|----------------------------|
|-------------------------|----------------------------|
|-------------------------|--------------------x-x---x-|
|-------------------------|--------------------x-x---x-|
|-------------------------|--------------------x-x---x-|


 Chorus
  D5    F5G5      C5         Bb5     D5    F5G5      Bb5     F5
  Gtr II
    PM|                                PM|
  E S S S S S S S  S  S  S S S S S   E S S S S S S S S S S S S S S
|----------------------------------|-------------------------------|
|----------------------------------|-------------------------------|
|----------------------------------|-------------------------------|
|-0-----3h5-5-5---10-10-10---8-8-8-|-0-----3h5-5-5---8-8-8---3---3-|
|-0-0-0-3h5-5-5---10-10-10---8-8-8-|-0-0-0-3h5-5-5---8-8-8---3---3-|
|-0-0-0-3h5-5-5---10-10-10---8-8-8-|-0-0-0-3h5-5-5---8-8-8---3---3-|


                                                               D.S.
  D5    F5G5      C5         Bb5     A5                F5      G5
    PM|
  E S S S S S S S  S  S  S S S S S   S S S S S S S S S S S S S S S S
|----------------------------------|----------------------------------|
|----------------------------------|----------------------------------|
|----------------------------------|----------------------------------|
|-0-----3h5-5-5---10-10-10---8-8-8-|-7-7-7-7-7-7-7-7---3---3-3h5-5-5--|
|-0-0-0-3h5-5-5---10-10-10---8-8-8-|-7-7-7-7-7-7-7-7---3---3-3h5-5-5--|
|-0-0-0-3h5-5-5---10-10-10---8-8-8-|-7-7-7-7-7-7-7-7---3---3-3h5-5-5--|


  D5    F5G5      C5         Bb5     D5    F5G5      Bb5     F5
    PM|                                PM|
  E S S S S S S S  S  S  S S S S S   E S S S S S S S S S S S S S S
|----------------------------------|-------------------------------|
|----------------------------------|-------------------------------|
|----------------------------------|-------------------------------|
|-0-----3h5-5-5---10-10-10---8-8-8-|-0-----3h5-5-5---8-8-8---3---3-|
|-0-0-0-3h5-5-5---10-10-10---8-8-8-|-0-0-0-3h5-5-5---8-8-8---3---3-|
|-0-0-0-3h5-5-5---10-10-10---8-8-8-|-0-0-0-3h5-5-5---8-8-8---3---3-|


  D5    F5G5      C5         Bb5     A5                F5      G5
    PM|
  E S S S S S S S  S  S  S S S S S   S S S S S S S S S S S S S S S S
|----------------------------------|----------------------------------|
|----------------------------------|----------------------------------|
|----------------------------------|----------------------------------|
|-0-----3h5-5-5---10-10-10---8-8-8-|-7-7-7-7-7-7-7-7---3---3-3h5-5-5--|
|-0-0-0-3h5-5-5---10-10-10---8-8-8-|-7-7-7-7-7-7-7-7---3---3-3h5-5-5--|
|-0-0-0-3h5-5-5---10-10-10---8-8-8-|-7-7-7-7-7-7-7-7---3---3-3h5-5-5--|


 Bridge
  N.C.
  PM----|   PM----|   PM|     PM----|   PM----|   PM|
  S S S S E S S S S E S S E   S S S S E S S S S E S S E
|---------------------------|---------------------------|
|---------------------------|---------------------------|
|---------9---------9-----9-|---------9---------9-----9-|
|---------8---------8-----8-|---------8---------8-----8-|
|---------7---------7-----7-|---------7---------7-----7-|
|-0-0-0-0---0-0-0-0---0-0---|-0-0-0-0---0-0-0-0---0-0---|


  N.C.                                      F#F5E5F5E5D#5
  PM----|   PM----|   PM|     PM----|   PM------------|
                                            |-3-| |-3-|
  S S S S E S S S S E S S E   S S S S E S S E E E E E E
|---------------------------|---------------------------|
|---------------------------|---------------------------|
|---------9---------9-----9-|---------9-----------------|
|---------8---------8-----8-|---------8-----------------|
|---------7---------7-----7-|---------7-----4-3-2-3-2-1-|
|-0-0-0-0---0-0-0-0---0-0---|-0-0-0-0---0-0-4-3-2-3-2-1-|


  N.C.
  PM----|   PM----|   PM|     PM----|   PM----|   PM|
  S S S S E S S S S E S S E   S S S S E S S S S E S S E
|---------------------------|---------------------------|
|---------------------------|---------------------------|
|---------9---------9-----9-|---------9---------9-----9-|
|---------8---------8-----8-|---------8---------8-----8-|
|---------7---------7-----7-|---------7---------7-----7-|
|-0-0-0-0---0-0-0-0---0-0---|-0-0-0-0---0-0-0-0---0-0---|


  N.C.                                      F#F5E5F5E5D#5
                             5/4
  PM----|   PM----|   PM|     PM----|   PM------------|
                                            |-3-| |-3-|
  S S S S E S S S S E S S E   S S S S E S S E E E E E E Q
|---------------------------|------------------------------|
|---------------------------|------------------------------|
|---------9---------9-----9-|---------9--------------------|
|---------8---------8-----8-|---------8--------------------|
|---------7---------7-----7-|---------7-----4-3-2-3-2-1----|
|-0-0-0-0---0-0-0-0---0-0---|-0-0-0-0---0-0-4-3-2-3-2-1----|


 Guitar Solo
  D5        F5    G5         C5                Bb5
 4/4
  Gtr II
        PM|
   E    S S  S    S S S   S   S  S     S     S  S   S  S
|--------------------------------------------------------|
|--------------------------------------------------------|
|--------------------------------------------------------|
|--0---------3h===5-5-5------10-10----10--------8---8--8-|
|--0----0-0--3h===5-5-5------10-10----10--------8---8--8-|
|--0----0-0--3h===5-5-5------10-10----10--------8---8--8-|
|
| Gtr III
|  Q         Q           +S   S  T  T  T  T  S  S  +E
|-10--------10----------(10)-----------------------------|
|-13b15-----13b15r======(13)-13-10h13p10----10-----------|
|----------------------------------------12----12-(12)---|
|--------------------------------------------------------|
|--------------------------------------------------------|
|--------------------------------------------------------|


  D5            F5 G5           Bb5        F5
            PM|
   E        S S  S S  S  S   S   S  S S  S S  S  S
|--------------------------------------------------|
|--------------------------------------------------|
|--------------------------------------------------|
|--0-------------3h5--5--5-------8--8-8----3-----3-|
|--0--------0-0--3h5--5--5-------8--8-8----3-----3-|
|--0--------0-0--3h5--5--5-------8--8-8----3-----3-|
|
|  |--3--|
|  S  S  S  E    E    S  S  +S   S  E    E    S  S
|--------------------------------------------------|
|--------------------------------------------------|
|-12p10----10--------10h12-(12)-12-10--------10-12-|
|-------12------12----------------------12---------|
|--------------------------------------------------|
|--------------------------------------------------|


  D5                  F5   G5                  C5                 Bb5
              PM|
   E          S  S      S   S  S      S   S      S   S  S      S   S  S S
|-------------------------------------------------------------------------|
|-------------------------------------------------------------------------|
|-------------------------------------------------------------------------|
|--0--------------------3h==5--5------5---------10--10-10----------8--8-8-|
|--0----------0--0------3h==5--5------5---------10--10-10----------8--8-8-|
|--0----------0--0------3h==5--5------5---------10--10-10----------8--8-8-|
|
|  S     +S   S  S     +S   S  S     +S   S     +S   S  S     +S   E.
|-------------------------------------------------------------------------|
|-12----(12)----12----(12)----12----(12)-12----(12)----12----(12)---------|
|-12b14r(12)-10-12b14r(12)-10-12b14r(12)-12b14r(12)-10-12b14r(12)-10------|
|-------------------------------------------------------------------------|
|-------------------------------------------------------------------------|
|-------------------------------------------------------------------------|


  A5                               F5             G5
   S  S S  S  S    S     S  S    S  S  S  S  S     S  S  S
|----------------------------------------------------------|
|----------------------------------------------------------|
|----------------------------------------------------------|
|--7--7-7--7--7----7-----7--7-------3-----3--3h====5--5--5-|
|--7--7-7--7--7----7-----7--7-------3-----3--3h====5--5--5-|
|--7--7-7--7--7----7-----7--7-------3-----3--3h====5--5--5-|
|
|             |---3---|
|  S  E    S  S  S    S  S  E       S  S  S  T  T  S  S  S
|--------------------------15b17---15-13-15-13h15p13-------|
|-10-13---13-15-13------13---------------------------15-13-|
|--------------------14------------------------------------|
|----------------------------------------------------------|
|----------------------------------------------------------|
|----------------------------------------------------------|


  D5       F5 G5         C5          Bb5
      PM|
   E  S  S  S S  S  S  S  S  S  S  S S  S  S
|--------------------------------------------|
|--------------------------------------------|
|--------------------------------------------|
|--0--------3h5--5--5----10-10-10----8--8--8-|
|--0--0--0--3h5--5--5----10-10-10----8--8--8-|
|--0--0--0--3h5--5--5----10-10-10----8--8--8-|
|
|  E  S  S  E    S  S  S  S  S  S  E    S  S
|----13----13---12h13-12----12h13-15---13h15-|
|-15----15---------------13------------------|
|--------------------------------------------|
|--------------------------------------------|
|--------------------------------------------|
|--------------------------------------------|


  D5          F5 G5          Bb5        F5
         PM|
   E     S  S  S  S  S  S  S  S  S S  S  S  S S
|------------------------------------------------|
|------------------------------------------------|
|------------------------------------------------|
|--0-----------3h=5--5--5-----8--8-8-----3----3--|
|--0-----0--0--3h=5--5--5-----8--8-8-----3----3--|
|--0-----0--0--3h=5--5--5-----8--8-8-----3----3--|
|
|  S  S  S  S  S  S  S  S  S  S  E    S  S  E
|-17-15-13-15-13-12-13-12----12------------------|
|-------------------------13----13---------13----|
|------------------------------------12h14-------|
|------------------------------------------------|
|------------------------------------------------|
|------------------------------------------------|


  D5                F5 G5            C5             Bb5
               PM|
   E           S  S  S  S  S  S   S   S  S  S  S     S  S     S
|---------------------------------------------------------------|
|---------------------------------------------------------------|
|---------------------------------------------------------------|
|--0-----------------3h=5--5--5------10-10-10--------8--8-----8-|
|--0-----------0--0--3h=5--5--5------10-10-10--------8--8-----8-|
|--0-----------0--0--3h=5--5--5------10-10-10--------8--8-----8-|
|
|  T  T  T  T  S  S  S  S  S  S  +S   S  S  S  T  T  S  T  T  S
|---------------------------------------------------------------|
|-15p13h15p13----13---------------------------------------------|
|-------------14----14p12-10h12-(12)-12-10-------------------10-|
|------------------------------------------12-------10-10h12----|
|---------------------------------------------10h12-------------|
|---------------------------------------------------------------|


  A5                                                F5          G5
   S      S    S    S   S  S  S            S      S  S  S  S  S  S S  S
|-----------------------------------------------------------------------|
|-----------------------------------------------------------------------|
|-----------------------------------------------------------------------|
|--7------7----7----7---7--7--7------------7---------3-----3--3h=5-5--5-|
|--7------7----7----7---7--7--7------------7---------3-----3--3h=5-5--5-|
|--7------7----7----7---7--7--7------------7---------3-----3--3h=5-5--5-|
|
|  S     +S   +S    S   S  S  T      +T   +T   T  S  S  S  S  S  S S  S
|-----------------------------------------------------------------------|
|------------------13---------------------------------------------------|
|-12b14-(12)-(12)-(12)-12h14-12b14==(12)r(12)p10----10------------------|
|------------------------------------------------12----12-10------------|
|------------------------------------------------------------12-10-8-10-|
|-----------------------------------------------------------------------|


 Out-Chorus
  D5    F5G5      C5         Bb5     D5    F5G5      Bb5     F5
    PM|                                PM|
  E S S S S S S S  S  S  S S S S S   E S S S S S S S S S S S S S S
|----------------------------------|-------------------------------|
|----------------------------------|-------------------------------|
|----------------------------------|-------------------------------|
|-0-----3h5-5-5---10-10-10---8-8-8-|-0-----3h5-5-5---8-8-8---3---3-|
|-0-0-0-3h5-5-5---10-10-10---8-8-8-|-0-0-0-3h5-5-5---8-8-8---3---3-|
|-0-0-0-3h5-5-5---10-10-10---8-8-8-|-0-0-0-3h5-5-5---8-8-8---3---3-|
|
| >
| W                                  W
|----------------------------------|-------------------------------|
|----------------------------------|-------------------------------|
|----------------------------------|-------------------------------|
|----------------------------------|-------------------------------|
|-5--------------------------------|-------------------------------|
|----------------------------------|-------------------------------|


  D5    F5G5      C5         Bb5     A5                F5      G5
    PM|
  E S S S S S S S  S  S  S S S S S   S S S S S S S S S S S S S S S S
|----------------------------------|----------------------------------|
|----------------------------------|----------------------------------|
|----------------------------------|----------------------------------|
|-0-----3h5-5-5---10-10-10---8-8-8-|-7-7-7-7-7-7-7-7---3---3-3h5-5-5--|
|-0-0-0-3h5-5-5---10-10-10---8-8-8-|-7-7-7-7-7-7-7-7---3---3-3h5-5-5--|
|-0-0-0-3h5-5-5---10-10-10---8-8-8-|-7-7-7-7-7-7-7-7---3---3-3h5-5-5--|


  D5    F5G5      C5         Bb5     D5    F5G5      Bb5     F5
    PM|                                PM|
  E S S S S S S S  S  S  S S S S S   E S S S S S S S S S S S S S S
|----------------------------------|-------------------------------|
|----------------------------------|-------------------------------|
|----------------------------------|-------------------------------|
|-0-----3h5-5-5---10-10-10---8-8-8-|-0-----3h5-5-5---8-8-8---3---3-|
|-0-0-0-3h5-5-5---10-10-10---8-8-8-|-0-0-0-3h5-5-5---8-8-8---3---3-|
|-0-0-0-3h5-5-5---10-10-10---8-8-8-|-0-0-0-3h5-5-5---8-8-8---3---3-|


  D5    F5G5      C5         Bb5     A5                F5      G5
    PM|
  E S S S S S S S  S  S  S S S S S   S S S S S S S S S S S S S S S S
|----------------------------------|----------------------------------|
|----------------------------------|----------------------------------|
|----------------------------------|----------------------------------|
|-0-----3h5-5-5---10-10-10---8-8-8-|-7-7-7-7-7-7-7-7---3---3-3h5-5-5--|
|-0-0-0-3h5-5-5---10-10-10---8-8-8-|-7-7-7-7-7-7-7-7---3---3-3h5-5-5--|
|-0-0-0-3h5-5-5---10-10-10---8-8-8-|-7-7-7-7-7-7-7-7---3---3-3h5-5-5--|


  A5                F5      G5      D5
                                    >
  S S S S S S S S S S S S S S S S   W
|---------------------------------|------|
|---------------------------------|------|
|---------------------------------|------|
|-7-7-7-7-7-7-7-7---3---3-3h5-5-5-|-0----|
|-7-7-7-7-7-7-7-7---3---3-3h5-5-5-|-0----|
|-7-7-7-7-7-7-7-7---3---3-3h5-5-5-|-0----|


  +W           +W
|------------|--------*|
|------------|--------*|
|------------|--------*|
|-(0)--------|-(0)----*|
|-(0)--------|-(0)----*|
|-(0)--------|-(0)----*|




--------------------------------------------------------------------------------


Duration Legend
---------------
W - whole; H - half; Q - quarter; E - 8th; S - 16th; T - 32nd; X - 64th; a - acciaccatura
+ - note tied to previous; . - note dotted; .. - note double dotted
Uncapitalized letters represent notes that are staccato (1/2 duration)
Irregular groupings are notated above the duration line
Duration letters will always appear directly above the note/fret number it represents the
duration for.  Duration letters with no fret number below them represent rests.  Multi-
bar rests are notated in the form Wxn, where n is the number of bars to rest for.  Low
melody durations appear below the staff

Tablature Legend
----------------
 h   - hammer-on
 p   - pull-off
 b   - bend
 pb  - pre-bend
 r   - bend release (if no number after the r, then release immediately)
 /\  - slide into or out of (from/to "nowhere")
 s   - legato slide
 S   - shift slide
 - natural harmonic
[n]  - artificial harmonic
n(n) - tapped harmonic
 ~   - vibrato
 tr  - trill
 T   - tap
 TP  - trem. picking
 PM  - palm muting
\n/  - tremolo bar dip; n = amount to dip
 \n  - tremolo bar down
 n/  - tremolo bar up
/n\  - tremolo bar inverted dip
 =   - hold bend; also acts as connecting device for hammers/pulls
 <> - volume swell (louder/softer)
 x   - on rhythm slash represents muted slash
 o   - on rhythm slash represents single note slash

Misc Legend
-----------
 |  - bar
||  - double bar
||o - repeat start
o|| - repeat end
*|  - double bar (ending)
 :  - bar (freetime)
 $  - Segno
 &  - Coda
Tempo markers -  = BPM(8/16=s8/s16), where s8 = swing 8ths, s16 = swing 16ths


Tap to rate this tab
# A B C D E F G H I J K L M N O P Q R S T U V W X Y Z