Guitaretab - guitar tabs
Song name
# A B C D E F G H I J K L M N O P Q R S T U V W X Y Z

12 Stones - Lifeless tab

Band: 12 Stones
Song: Lifeless
Drop C Tuning
*=palm-mute


Intro (w/distortion)
D---------------------------------------------|
A---------------------------------------------|
F------7---10------10-12-------7---10------12-|
C-0-00-x-0-x--8-88-x--x---0-00-x-0-x--8-88-x--|
G-0-00-5-0-8--8-88-8--10--0-00-5-0-8--8-88-10-|
C-0-00---0----8-88--------0-00---0----8-88----|
  * **   *    * **        * **   *          ^bend

Intro(continued)
D-----------------------------------------------|
A-----------------------------------------------|
F------7---10------10-12-------7---10------10-9-|
C-0-00-x-0-x--8-88-x--x---0-00-x-0-x--8-88-x--x-|
G-0-00-5-0-8--8-88-8--10--0-00-5-0-8--8-88-8--7-|
C-0-00---0----8-88--------0-00---0----8-88------|

Verse(clean)  \"Desperate and waiting, frozen to the core...\"
D-----------------------|
A-3---------3-----------|
F-2----10---2----10---7-|
C-0----8----0----8----5-|
G-0----8----0----8----5-|
C-0----8----0----8----5-|
^Strum chords

Pre-Chorus (distortion)
D------------------------------------------------|
A------------------------------------------------|
F------7---10------10-12-------7---10------12-14-|
C-0-00-x-0-x--8-88-x--x---0-00-x-0-x--8-88-x--x--|
G-0-00-5-0-8--8-88-8--10--0-00-5-0-8--8-88-10-12-|
C-0-00---0----8-88--------0-00---0----8-88-------|
  * **   *    * **        * **   *    * **

Fill before chorus
D----------------|
A----------------|
F----------------|
C-8-8-8-10-10-10-|
G-8-8-8-10-10-10-|
C-8-8-8-10-10-10-|

Chorus
D--------------------------------------------------------------|
A--------------------------------------------------------------|
F---------------------------7/10-10-10-10--------7/10-10-10-10-|
C-888888888888-10-10-10-000-x/x--x--x--x--000000-x/x--x--x--x--|
G-888888888888-10-10-10-000-5/8--8--8--8--000000-5/8--8--8--8--|
C-888888888888-10-10-10-000---------------000000---------------|

Chorus(continued)
D---------------------------------------------------------------|
A---------------------------------------------------------------|
F---------------------------7/10-10-10-10--------10/12-12-12-12-|
C-888888888888-10-10-10-000-x/x--x--x--x--888888-x-/x--x--x--x--|
G-888888888888-10-10-10-000-5/8--8--8--8--888888-8-/10-10-10-10-|
C-888888888888-10-10-10-000---------------888888----------------|

Then the verse
Then the pre-chorus
Then the fill before chorus
Then the chorus
[ Tab from: http://www.guitaretab.com/numeric/12-stones/139516.html ]
Interlude(clean)
D-------------------------------------------------|
A-------------------------------------------------|
F-9-----12-12-12-12-12-12-10-10-10-10-10-10-12-12-|
C-7-----0--0--0--0--0--0--0--0--0--0--0--0--0--0--|
G-5-----0--0--0--0--0--0--0--0--0--0--0--0--0--0--|
C-0-----0--0--0--0--0--0--0--0--0--0--0--0--0--0--|
  ^strum

Bridge \"Will I fall away from you...\"  repeat x2
D----------------------------------------------------|
A----------------------------------------------------|
F----------------------------------------------------|
C-0----3----10----8----10----0----3----10----8----10-|
G-0----3----10----8----10----0----3----10----8----10-|
C-0----3----10----8----10----0----3----10----8----10-|
^strum chords

Solo:
D--------------------------------------------------------------------------------------------------------|
A-------------------10-------------10-------------------------------------------13----13--15-13---13-15--|
F-------------10----10-------------10----10--12-10---10-10-12-10---10--10-12-14----14-----------14-------|
C-10h12-12-12----12----10h12-12-12----12-----------12------------12--------------------------------------|
G--------------------------------------------------------------------------------------------------------|
C--------------------------------------------------------------------------------------------------------|

D-/16-15-13-12h13-12----12-----------------------------------------------------------------------------------|
A--------------------13----13-------13----15-13----15-13----15-13----13--------------------------------------|
F-----------------------------12-14----14-------14-------14-------14----14-12-10-12-12-10----10--------------|
C-----------------------------------------------------------------------------------------12----12-10---10---|
G-----------------------------------------------------------------------------------------------------12--12-|
C------------------------------------------------------------------------------------------------------------|

D-----------|
A-----------|
F-----------|
C-----------|
G-10-8-10-8-|
C-----------|
          ^Let ring

Outro
D---------------------------------------------------------|
A---------------------------------------------------------|
F---------------------------------------------------------|
C-00-0-0-00-0-0-88-8-8-88-8-8-00-0-0-00-0-0-88-8-8-55-5-5-|
G-00-0-0-00-0-0-88-8-8-88-8-8-00-0-0-00-0-0-88-8-8-55-5-5-|
C-00-0-0-00-0-0-88-8-8-88-8-8-00-0-0-00-0-0-88-8-8-55-5-5-|

Outro(continued)
D---------------------------------|
A---------------------------------|
F---------------------------------|
C-0----8-------0-------8--8-5---0-|
G-0----8-------0-------8--8-5---0-|
C-0----8-------0-------8--8-5---0-|
  ^    ^strum  ^strum           ^Let ring
Related for Lifeless tab
Lifeless chords by 12 Stones