Song name
# A B C D E F G H I J K L M N O P Q R S T U V W X Y Z

12 Stones - The Way I Feel tab

To tell you the truth i'm Pretty sure this is not how it is Played but i thought i 
tab it anyway. This was tabbed 100% by ear only this was figured out in 5 min, i just came 
it while messing aroung on my guitar... Enjoy!

Band : 12 Stones
Song : The Way I Feel
Part : Intro
Tabbed by : Ibanez22295
Tuning : Drop C (CGCFAd)

To tune to drop C just tune Drop D then 1 Whole step down.

d|------------------------------------------------------|
A|------------------------------------------------------|
F|---------------------------------------------------10-|
C|----10----10------10--10------10----10------10--10----| x3
G|---8-----8---8---8---8---8---8-----8---8---8---8------|
C|-12----12-----8-----8---8--12----12-----8-----8---8---|


Here is another way to play it
e|------------------------------------|
B|----------------------------------4-|
G|---3--3----3--3-----3--3----3--3----|
D|--1--1-1--1--1--1--1--1-1--1--1-----|x3
A|-3--3-------------3--3--------------|
E|--------4---4--4---------4---4---4--|
Tap to rate this tab
# A B C D E F G H I J K L M N O P Q R S T U V W X Y Z