Song name
# A B C D E F G H I J K L M N O P Q R S T U V W X Y Z

12 Stones - Lie To Me Acoustic tab

Band: 12 Stones
Song: Lie to Me (Acoustic)

This is the acoustic version for 12 Stones "Lie to Me".
It is only the main guitar part and doesn't include the picking,
but the picking isn't hard to figure out. These are the chords used
and the picking just fits right in if you play around with it.
Enjoy!

Tuning: Drop C (CGCFAD)

Intro
D|----------------|
A|----------------|
F|--11--14--7--7--|
C|--12--14--7--4--|  x2
G|--9---12--5--0--|
C|--9---0---5--0--|


Verse
D|----------------|
A|----------------|
F|--11--14--7--7--|
C|--12--14--7--4--|  x4
G|--9---12--5--0--|
C|--9---0---5--0--|


Chorus
D|--------------     |-----------|
A|--------------     |-----------|
F|--4--7--7--9--     |--4--6--7--|
C|--2--5--4--7--  x4 |--2--4--5--| (play once after the chorus)
G|--2--5--0--7--     |--2--4--5--|
C|--2--5--0--7--     |--2--4--5--|


Fill
D|----------------|
A|----------------|
F|--11--14--7--7--|
C|--12--14--7--4--|  x2
G|--9---12--5--0--|
C|--9---0---5--0--|


Verse
D|----------------|
A|----------------|
F|--11--14--7--7--|
C|--12--14--7--4--|  x4
G|--9---12--5--0--|
C|--9---0---5--0--|


Chorus
D|--------------     |-----------|
A|--------------     |-----------|
F|--4--7--7--9--     |--4--6--7--|
C|--2--5--4--7--  x4 |--2--4--5--|   (play once after the chorus)
G|--2--5--0--7--     |--2--4--5--|
C|--2--5--0--7--     |--2--4--5--|


Bridge
D|---------------     |-----------------------|
A|---------------     |-----------------------|
F|--11--9--9--9--     |--7--7--9--6--7--7--9--|
C|--9---7--6--7-- x2  |--5--4--7--4--5--4--7--|  x1
G|--9---7--6--7--     |--5--0--7--4--5--0--7--|
C|--9---7--6--7--     |--5--0--7--4--5--0--7--|


Chorus
D|--------------     |-----------|
A|--------------     |-----------|
F|--4--7--7--9--     |--4--6--7--|
C|--2--5--4--7-- x4  |--2--4--5--| (play once after the chorus)
G|--2--5--0--7--     |--2--4--5--|
C|--2--5--0--7--     |--2--4--5--|


Ending
D|-----------------------|
A|-----------------------|
F|--7--7--9--6--7--7--9--|
C|--5--4--7--4--5--4--7--|  x1
G|--5--0--7--4--5--0--7--|
C|--5--0--7--4--5--0--7--|


Outro
D|----------------|
A|----------------|
F|--11--14--7--7--|
C|--12--14--7--4--|  x2
G|--9---12--5--0--|
C|--9---0---5--0--|

Thanks, enjoy!
Tap to rate this tab
# A B C D E F G H I J K L M N O P Q R S T U V W X Y Z