Song name
# A B C D E F G H I J K L M N O P Q R S T U V W X Y Z

12 Stones - Lie To Me Acoustic tab

   hey all this is lie to me acoustic by twelve stones. someone has done the chords for 
but not the tab so i think i got it figured out..it probably wont be perfect but its 
than nothin.

   -----------|
   -----------|  these are the chords you can use
   -11-14-7-7-|   to set your fingers for the picking part.
   -12-14-7-4-|
   -9--12-5-0-|
   -9--0--5-0-|

      verses 1 and 2
   D----------------------------------------------------------|------------|
   A----------------------------------------------------------|------------|
   F-11------11-------------14---------------------------7----|------------|
   C----12------11-------12----12----12---7-----7--4----4--4--|-x4---------|
   G-------9----------12----------12--------5----------0-----0|------------|
   C-9----------0---0---------------------5---5----0--0-------|------------|


   on the fourth time going into the chorus it ends like this D------------|
                                                              A------------|
                                                              F------------|
                                                              C--4---------|
                                                              G------------|
                                                              C--0---------|
   chorus
D|--------------     |-----------|
A|--------------     |-----------|
F|--4--7--7--9--     |--4--6--7--|
C|--2--5--4--7--  x4 |--2--4--5--| (play once after the chorus)
G|--2--5--0--7--     |--2--4--5--|
C|--2--5--0--7--     |--2--4--5--|

 there's a part in the chorus where you can just keep playin this or this

  ----------------------------------------|
  ----------------------------------------|
  --------7------7------7--------6--------|
  ----5-7--7--5-7--7-4-7--7----7---7------|
  ---------------------------7------------|
  ----------------------------------------|

  at the end of the first chorus it ends like this |------------------|
                                                   |------------------|
  Bridge                                           |------------------|
D|---------------     |-----------------------|    |--12--------------|
A|---------------     |-----------------------|    |--0---------------|
F|--11--9--9--9--     |--7--7--9--6--7--7--9--|    |--0---------------|
C|--9---7--6--7-- x2  |--5--4--7--4--5--4--7--------------------------|  x1
G|--9---7--6--7--     |--5--0--7--4--5--0--7--------------------------|
C|--9---7--6--7--     |--5--0--7--4--5--0--7--------------------------|


Ending
D|-----------------------|
A|-----------------------|
F|--7--7--9--6--7--7--9--|
C|--5--4--7--4--5--4--7--|  x1
G|--5--0--7--4--5--0--7--|
C|--5--0--7--4--5--0--7--|

then go back to the finger picking at the beginning


  and end like this --------------|
                    --------------|
                    --------------|
                    -4------------|
                    --------------|
                    -0------------|

 And that's it..i kno its not 100 percent right and feel free to make corrections and i 
you all enjoy.
                                       -xAlwaysx-
Tap to rate this tab
# A B C D E F G H I J K L M N O P Q R S T U V W X Y Z