Song name
# A B C D E F G H I J K L M N O P Q R S T U V W X Y Z

12 Stones - Broken tab

Tabbed by: Stephen
Email: dragonofdarkness@gmail.com

This is my fixed version of vanquish_385 tab. He had the end alittle wrong so I re-did it.

e|-------------------------------------------------|
B|-------------------------------------11----------|
G|-------------00-------------------------33-22-33-|
D|-00-33-22-33----33-22-00----33-22-33-------------|
A|-------------------------11----------------------|
D|-------------------------------------------------| x3

e|-------------------------------------------------|
B|-------------------------------------11-11-11-11-|
G|-------------00----------------------------------|
D|-00-33-22-33----33-22-00----33-22-33-------------|
A|-------------------------11----------------------|
D|-------------------------------------------------|

Bend the end of the last part.
Tap to rate this tab
 
# A B C D E F G H I J K L M N O P Q R S T U V W X Y Z