Song name
# A B C D E F G H I J K L M N O P Q R S T U V W X Y Z

12 Stones - Enemy tab

Drop C tuning (C-G-C-F-A-D)
Guitar one
|-----------------------------------------------------------------------------------------------|
|-----6-6p5---6-6p5--5-5h6--5-5h6--6-6p5--6-6p5--5-5h6--5h6/8*----------------------------------|
|---77------77-----33-----55-----77-----77-----33-----55----------------------------------------|
|-----------------------------------------------------------------------------------------------|
|-----------------------------------------------------------------------------------------------|
|-----------------------------------------------------------------------------------------------|
    ..      ..     ..     ..     ..     ..     ..     ..
Guitar 2
|-----------------------------------------------------------------------------------------------|
|----Guitar one plays here----------------------------------------------------------------------|
|-----------------------------------------------------------------------------------------------|
|----------------------------------3-3p2--3-3p2--2-2h3--2h3/5*----------------------------------|
|--------------------------------55-----55-----11-----33----------------------------------------|
|-----------------------------------------------------------------------------------------------|
		                                 ..     ..     ..     ..
Both Guitars
|-----------------------------------------------------------------------------------------------|
|-----------------------------------------------------------------------------------------------|
|-----------------------------------------------------------------------------------------------|
|-00-14-14\12-00-14-14\12-00-14-14/15-00-17-17\15-----------------------(2x)--------------------|
|-00-14-14\12-00-14-14\12-00-14-14/15-00-17-17\15-----------------------------------------------|
|-00-14-14\12-00-14-14\12-00-14-14/15-00-17-17\15-----------------------------------------------|

Verse: Guitar 1 plays intro again 2x
Pre chorus
|-----------------------------------------------------------------------------------------------|
|-----------------------------------------------------------------------------------------------|
|-----7777---7777------9999999^^----------------------------------------------------------------|
|--888----888----101010-------------------------------------------------------------------------|
|--888----888----101010-------------------------------------------------------------------------|
|--888----888----101010-------------------------------------------------------------------------|

Chorus 2x
|-----------------------------------------------------------------------------------------------|
|-----------------------------------------------------------------------------------------------|
|-----------------------------------------------------------------------------------------------|
|--5~/8~\3~/10~---------------------------------------------------------------------------------|
|--5~/8~\3~/10~---------------------------------------------------------------------------------|
|--5~/8~\3~/10~---------------------------------------------------------------------------------|

Intro II 2x
Verse 2x
Pre chorus
Chorus 4x

Bridge: I havenít quite figured out this part yet, but I will tab it when I figure it out.

Pre chorus
Chorus 6x
Intro II 2x
Intro I 2x
For the very ending, both guitar 1 and guitar 2 play the parts they did in the beginning 
of the song until the end. Listen with the song and youíll get it. Pleas Rate!!!

----------------------------12STONESLOVER33---------------------------------
Legend
/=slide up
\=slide down
.= palm mute
^=bend
*=harmonic

See you look at me
With a look in your eyes
Like you've got an enemy in your sights
Now, I do not believe
This war will be over until your forced to see just how wrong you are

So you think you know who I am
You ain't seen nothin yet

Back against the wall
Your guard begins to fall
But there's no sympathy
Your the enemy
Your my enemy

Your wanting to believe
I'm scared of what's coming
But I begin to see that your weak
Now, don't show your teeth to me
It won't hide the fears that are growing underneath
Your see-though pride

So you think you know who I am
You ain't seen nothin yet

Back against the wall
Your guard begins to fall
But there's no sympathy
Your the enemy
Your my enemy

Time and time again
You push me to the end
But I feel better now
So much better now
So much better
Tap to rate this tab
 
# A B C D E F G H I J K L M N O P Q R S T U V W X Y Z