12 Stones - Tomorrow Comes Today tab

Tuning: Drop D (DAdGBE)

| .  palm-mute
| /  slide up
| ~  let ring

Great song. All I have to say is enjoy. :)

[Intro Riff]
{Part 1}                    {Part 2} Extra crunchy guitar
E|--------------5----|      E|-------------------|
B|----3---5-3-----3--|      B|-------------------|
G|--2---2-----2------| x2   G|-------------------| x2
d|-------------------|      d|-------------------|
A|-------------------|      A|----5---5-5-5-5-5--|
D|-------------------|      D|--0---0-0-0-0-0-0--|
                                ...............

[Verse 1] Continue playing Part 1 of the Intro Riff thru the verse
E|-------------------------------------------------------------------|
B|-------------------------------------------------------------------|
G|-------------------------------------------------------------------|
d|----------------------------------7-7-7-7-7-7-7-7-7-7-7-7-7-7-7-7--|      
A|----5---5-5-5-5-5-5-5-5-5-5-5-5-5-x-x-x-x-x-x-x-x-x-x-x-x-x-x-x-x--|    
D|--0---0-0-0-0-0-0-0-0-0-0-0-0-0-0-7-7-7-7-7-7-7-7-7-7-7-7-7-7-7-7--|
    ...............................................................
E|-------------------------------------------------------------------|
B|-------------------------------------------------------------------|
G|-------------------------------------------------------------------|
d|--9-9-9-9-9-9-9-9-9-9-9-9-9-9-9-9-5-5-5-5-5-5-5-5-5-5-5-5-5-5-5-5--|      
A|--x-x-x-x-x-x-x-x-x-x-x-x-x-x-x-x-x-x-x-x-x-x-x-x-x-x-x-x-x-x-x-x--|    
D|--9-9-9-9-9-9-9-9-9-9-9-9-9-9-9-9-5-5-5-5-5-5-5-5-5-5-5-5-5-5-5-5--|
    ...............................................................
                                    \/-- - - - -Twelves- - - - --\/
E|--------------------------------------------------------------------|
B|--------------------------------------------------------------------|
G|--------------------------------------------------------------------|
d|--------------------------------------------------------------------|      
A|--0-0-0-0-0-0-0-0-0-0-0-0-0-0-0-0-12121212121212121212121212121212--|    
D|--0-0-0-0-0-0-0-0-0-0-0-0-0-0-0-0-7-7-7-7-7-7-7-7-7-7-7-7-7-7-7-7---|
    ................................................................
    \/-- - - - -Fourteens- - - --\/  \/-- - - - - -Tens- - - - - --\/
E|---------------------------------------------------------------------|
B|---------------------------------------------------------------------|
G|---------------------------------------------------------------------|
d|-----------------------------------------------------------10101010--|
A|--14141414141414141414141414141414-10101010101010101010101010101010--|    
D|--9-9-9-9-9-9-9-9-9-9-9-9-9-9-9-9--10101010101010101010101010101010--|
    .........................................................

[Chorus] Repeat both parts as necessary
{Part 1}                     {Part 2}
E|----------------------|    E|--------------------|
B|----------------------|    B|----7---8-7---10-7--|
G|----------------------|    G|--7---7-----7-------|
d|---0----7----9----5---|    d|--------------------|
A|---0----7----9----5---|    A|--------------------|
D|---0----7----9----5---|    D|--------------------|

[Verse 2] Includes the Intro Riff
E|--------------------------------------------------------------------|
B|--------------------------------------------------------------------|
G|--------------------------------------------------------------------|
d|--------------------------------------------------------------------|      
A|--------------------------------------------------------------------|    
D|--0-0-0-0-0-0-0-0-0-0-0-0-0-0-0-0-7-7-7-7-7-7-7-7-7-7-7-7-7-7-7-7---|
    ................................................................

E|---------------------------------------------------------------------|
B|---------------------------------------------------------------------|
G|---------------------------------------------------------------------|
d|---------------------------------------------------------------------|
A|---------------------------------------------------------------------|    
D|--9-9-9-9-9-9-9-9-9-9-9-9-9-9-9-9--5-5-5-5-5-5-5-5-5-5-5-5-5-5-5-5---|
    .................................................................

E|--------------------------------------------------------------------|
B|--------------------------------------------------------------------|
G|--------------------------------------------------------------------|
d|--------------------------------------------------------------------|      
A|--5-5-5-5-5-5-5-5-5-5-5-5-5-5-5-5-12121212121212121212121212121212--|    
D|--0-0-0-0-0-0-0-0-0-0-0-0-0-0-0-0-7-7-7-7-7-7-7-7-7-7-7-7-7-7-7-7---|
    ................................................................

E|---------------------------------------------------------------------|
B|---------------------------------------------------------------------|
G|---------------------------------------------------------------------|
d|-----------------------------------------------------------10101010--|
A|--14141414141414141414141414141414-10101010101010101010101010101010--|    
D|--9-9-9-9-9-9-9-9-9-9-9-9-9-9-9-9--10101010101010101010101010101010--|
    .........................................................

[Bridge] Once {Part 1} and {Part 2} are done, just play the Intro Riff
{Part 1}
E|----------------------|
B|----------------------|
G|----------------------| x2
d|---2----5----0----7---|
A|---2----5----0----7---|
D|---2----5----0----7---|

{Part 2}
E|--------------------------------------------------------------------|
B|--------------------------------------------------------------------|
G|------------------/7-7-7-7-7-7-7-7----------------------------------|
d|--2-2-2-2-2-2-2-2------------------7-7-7-7-7-7-7-7------------------|
A|---------------------------------------------------7-7-7-7-7-7-7-7--|
D|--------------------------------------------------------------------|

e|----------------------------------------------------|
B|----------------------------------------------------|
G|------------------/7-7-7-7-7-7-7-7------------------|
D|--2-2-2-2-2-2-2-2------------------7-7-7-7-7-7-7-7--|
A|----------------------------------------------------|
E|----------------------------------------------------|

E|---------------------------------------|
B|------------------7-7-8-8-10-10-10-10--|
G|--6-6-7-7-9-9-9-9----------------------|
d|---------------------------------------|
A|---------------------------------------|
D|---------------------------------------|

[Outro] Same chord progression as the chorus
E|---------------------------------------------------------|
B|---------------------------------------------------------|
G|--7-7-7-6-6/7-7--7-7-7-6-6/7-7--14-14-14-12-12-12-11-11--|
d|--x-x-x-x-x---x--x-x-x-x-x---x--x--x--x--x--x--x--x--x---|
A|--5-5-5-4-4/5-5--5-5-5-4-4/5-5--12-12-12-10-10-10-9--9---|
D|---------------------------------------------------------|

E|---------------------------------------------------------------|
B|---------------------------------------------------------------|
G|--14-14-14-12-12-12-11-11--6-6-6-6/9--7-7-7--6-6-6-6/9--7-7-7--|
d|--x--x--x--x--x--x--x--x---x-x-x-x----x-x-x--x-x-x-x----x-x-x--|
A|--12-12-12-10-10-10-9--9---4-4-4-4/7--5-5-5--4-4-4-4/7--5-5-5--|
D|---------------------------------------------------------------|

E|---------------------------------------------------------|
B|---------------------------------------------------------|
G|--14-14-14-12-12-12-11-11--14-14-14-12-12-12-11-11--11~--|
d|--x--x--x--x--x--x--x--x---x--x--x--x--x--x--x--x---12~--|
A|--12-12-12-10-10-10-9--9---12-12-12-10-10-10-9--9---0~---|
D|----------------------------------------------------0~---|

Done. God bless. :)
Tap to rate this tab
 
# A B C D E F G H I J K L M N O P Q R S T U V W X Y Z