Song name
# A B C D E F G H I J K L M N O P Q R S T U V W X Y Z

12 Stones - Lie To Me tab

I saw there wasnt a super great tab for this super great song, so I figured I 
would finish it up for all of you. Enjoy =)
-12stoneslover33
---Strum the chords as many times as you feel necessary-it doesnt make a difference in the song---
Lead 
intro
e|-14-------------14-15---|
B|---15----15----------15-|
G|-----14------14---------|
D|------------------------|
A|------------------------|
D|------------------------|
Or
E|-----------------------|
B|-7*-----------7*8*-----|
G|---7*---7*--------7*---|
D|-----7*-----7*---------|
A|-----------------------|
D|-----------------------|

Verse- might be off, but it sounds mostly right
e|-------------------------------------|
B|-------------------------------------|
G|-------------------------------------|Play through verse
D|--2/4~2---2/4~2--0/2~--0/2~4---------|
A|-2------2-------0-----0-----5-2-5~---|
D|-------------------------------------|

chorus
E|------------------|
B|------------------|
G|------------------|
D|-2~--5~--0~--7~---|2x
A|-2~--5~--0~--7~---|
D|-2~--5~--0~--7~---|

E|---2------3------2-----5-------|
B|-----3------3------3-----3-----|
G|-2------2------2------2----2---|2x
D|2------2------2------2---------|
A|-------------------------------|
D|-------------------------------|

Interlude before 2nd verse (clean):
E|-2--------2-3----------|
B|---3---3~-----3~~\-----|
G|-----2-----------------|
D|-----------------------|
A|-----------------------|
D|-----------------------|

Harmony towards end of 2nd verse
e|---------------------------------|
B|---------------------------------|
G|-7\6~6\4~4\2~/4/6~~--------------|
D|---------------------------------|
A|---------------------------------|
D|---------------------------------|

bridge
e|----------------|
B|----------------|
G|--777-777-777-77|<--lead plays this
D|-9-x-7-x-4-x-7/9| (x2)
A|-9-x-7-x-4-x-7/9|
D|-9-x-7-x-4-x-7/9|
     ^   ^   ^ Scratch strings
e|---------------------------------|
B|---------------------------------|
G|---------------------------------|
D|-55-00-77-77~-55-00-7-77777------|
A|-55-00-77-77~-55-00-7-77777------|
D|-55-00-77-77~-55-00-7-77777------|
                        ..... Palm mute
Alternate chorus after bridge
E|--------------------|
B|--------------------|
G|--------------------|
D|-22--55\\--0~--7~---|
A|-22--55\\--0~--7~---|
D|-22--55\\--0~--7~---|


Rhythm 
intro
e|----------------|
B|----------------|
G|----------------|
D|-9-x-7-x-5-x-0-x|
A|-9-x-7-x-5-x-0-x|
D|-9-x-7-x-5-x-0-x|
     ^   ^   ^   ^ Palm mute
verse
e|-------------------------------------|
B|-------------------------------------|
G|-------------------------------------|Play through verse
D|--2/4~2---2/4~2--0/2~--0/2~4---------|
A|-2------2-------0-----0-----5-2-5~---|
D|-------------------------------------|

chorus
E|------------------|
B|------------------|
G|------------------|
D|-2~--5~--0~--7~---|4x
A|-2~--5~--0~--7~---|
D|-2~--5~--0~--7~---|

bridge
e|----------------|
B|----------------|
G|--777-777-777-77|
D|-9-x-7-x-4-x-7/9| (x2)
A|-9-x-7-x-4-x-7/9|
D|-9-x-7-x-4-x-7/9|
     ^   ^   ^ Scratch strings
e|---------------------------------|
B|---------------------------------|
G|---------------------------------|
D|-55-00-77-77~-55-00-7-77777------|
A|-55-00-77-77~-55-00-7-77777------|
D|-55-00-77-77~-55-00-7-77777------|
                        ..... Palm mute
Alternate chorus after bridge
E|--------------------|
B|--------------------|
G|--------------------|
D|-22--55\\--0~--7~---|
A|-22--55\\--0~--7~---|
D|-22--55\\--0~--7~---|

Tap to rate this tab
 
# A B C D E F G H I J K L M N O P Q R S T U V W X Y Z