Song name
# A B C D E F G H I J K L M N O P Q R S T U V W X Y Z

12 Stones - Erics Song tab

Well ladies and gentlemen, the tabbed solo for Erics Song is finally
 here. It was tabbed completely by ear, so dont be harsh on the criticism. Enjoy, 
and please rate :)
12 stones forever,
_-_-_-_-_-_-_-_-_-_-_-_-_-12STONESLOVER33_-_-_-_-_-_-_-_-_-_-_-_-_-_-_-_-_-

|---------------------------------------------------------|
|-----------------------------8-8-------------------8\----|
|-5b7-3-0-3-0-5b73-0-3-5b7r5/7-7-7\5\3/5b7-30-03/5b7--12~-|
|---------------------------------------------------------|
|---------------------------------------------------------|
|---------------------------------------------------------|

|------------------------------------------15--15--15--15-|
|-13p11-13p11--13p11-13p11--13p11-13p11--15--15--15--15---|
|------------12-----------12------------------------------|
|---------------------------------------------------------|
|---------------------------------------------------------|
|---------------------------------------------------------|

|---------------------------19br-17h19p17--17-------------|
|-19b-19b-17-15/17\15~/17-19-------------19--17-16--------|
|---------------------------------------------------------|
|---------------------------------------------------------|
|---------------------------------------------------------|
|---------------------------------------------------------|

|---------------------------------------------------------|
|-18p15-18p15---18p15-18p15---18p15-----------------------|
|------------17------------17------17-15--15--------------|
|---------------------------------------17----------------|
|---------------------------------------------------------|
|---------------------------------------------------------|

|---------------------------------------------------------|
|---------------------------------------------------------|
|------------------------------12~~~----------------------|
|-17-15--15-----------12--12-15---------------------------|
|------17--17-15\12/15--15--------------------------------|
|---------------------------------------------------------|
 Legend:
b=bend
h=hammer on
p=pull off
/=slide up
\=slide down
~=vibrato
br=bend and return
Looking forward to the new album, “Only Human”, coming this summer!!!
Tap to rate this tab
# A B C D E F G H I J K L M N O P Q R S T U V W X Y Z