Song name
# A B C D E F G H I J K L M N O P Q R S T U V W X Y Z

12 Stones - Soulfire tab

Gtr I (C G C F A D) - 'Untitled'
Gtr II (C G C F A D) - 'Untitled'


 Intro
  Q=85
  (D5)          (Eb)        (D5)          (Eb)
 4/4
  Gtr I
  S  E  S E S E E S E S S   S  E  S E S E E S E S S
|-------------------------|-------------------------|
|-------------------------|-------------------------|
|-5s=7----7---7-8---8---8-|-5s=7----7---7-8---8---8-|
|-0-(0)-0---0-----0---0---|-0-(0)-0---0-----0---0---|
|-------------------------|-------------------------|
|-------------------------|-------------------------|


  (D5)          (Eb)        (D5)    D5
  S  E  S E S E E S E S S   S  E  S E   S E    E   S  E   S  S
|-------------------------|------------------------------------|
|-------------------------|------------------------------------|
|-5s=7----7---7-8---8---8-|-5--7----7-----7---10-----10-----10-|
|-0-(0)-0---0-----0---0---|-0-(0)-0-----0----------0------0----|
|-------------------------|------------------------------------|
|-------------------------|------------------------------------|
|
| Gtr II
|                                   PM------------------|
| W                         Q       S S S S S  S E    S S E
|-------------------------|------------------------------------|
|-------------------------|------------------------------------|
|-------------------------|------------------------------------|
|-------------------------|------------------------------------|
|-------------------------|---------0-0-0-0-0--0------0-0------|
|-------------------------|---------0-0-0-0-0--0------0-0------|


  D5    N.C.                        D5    N.C.
  Gtr II
    PM|                               PM|
  E S S S S S S +S  S S S S S S S   E S S S S S S +S  S S S S S S S
|---------------------------------|---------------------------------|
|---------------------------------|---------------------------------|
|-------5-7-7-7-(7)-8-8-8-8-8-8-8-|-------5-7-7-7-(7)-8-8-8-8-8-8-8-|
|-0-------------------------------|-0-------------------------------|
|-0-0-0-3-5-5-5-(5)-6-6-6-6-6-6-6-|-0-0-0-3-5-5-5-(5)-6-6-6-6-6-6-6-|
|-0-0-0---------------------------|-0-0-0---------------------------|


  D5    N.C.                        D5    N.C.
    PM|                               PM|
  E S S S S S S +S  S S S S S S S   E S S S S S S +S   S  S  S  S  S  S  S
|---------------------------------|----------------------------------------|
|---------------------------------|----------------------------------------|
|-------5-7-7-7-(7)-8-8-8-8-8-8-8-|-------5-7-7-7-(7)-10-10-10-10-10-10-10-|
|-0-------------------------------|-0--------------------------------------|
|-0-0-0-3-5-5-5-(5)-6-6-6-6-6-6-6-|-0-0-0-3-5-5-5-(5)--8--8--8--8--8--8--8-|
|-0-0-0---------------------------|-0-0-0----------------------------------|


  $
  D5
  W          +W
|----------|--------|
|----------|--------|
|----------|--------|
|-0--------|-(0)----|
|-0--------|-(0)----|
|-0--------|-(0)----|


 Verse
  D5
  PM
  e E H.        Wx7
|-------------|--------|
|-------------|--------|
|-------------|--------|
|-------------|--------|
|-0-----------|--------|
|-0-----------|--------|


 Chorus
  D5    N.C.                        D5    N.C.
    PM|                               PM|
  E S S S S S S +S  S S S S S S S   E S S S S S S +S  S S S S S S S
|---------------------------------|---------------------------------|
|---------------------------------|---------------------------------|
|-------5-7-7-7-(7)-8-8-8-8-8-8-8-|-------5-7-7-7-(7)-8-8-8-8-8-8-8-|
|-0-------------------------------|-0-------------------------------|
|-0-0-0-3-5-5-5-(5)-6-6-6-6-6-6-6-|-0-0-0-3-5-5-5-(5)-6-6-6-6-6-6-6-|
|-0-0-0---------------------------|-0-0-0---------------------------|


                                                                       D.S.
  D5    N.C.                        D5    N.C.
    PM|                               PM|
  E S S S S S S +S  S S S S S S S   E S S S S S S +S   S  S  S  S  S  S  S
|---------------------------------|------------------------------------------|
|---------------------------------|------------------------------------------|
|-------5-7-7-7-(7)-8-8-8-8-8-8-8-|-------5-7-7-7-(7)-10-10-10-10-10-10-10---|
|-0-------------------------------|-0----------------------------------------|
|-0-0-0-3-5-5-5-(5)-6-6-6-6-6-6-6-|-0-0-0-3-5-5-5-(5)--8--8--8--8--8--8--8---|
|-0-0-0---------------------------|-0-0-0------------------------------------|


  D5    N.C.                        D5    N.C.
    PM|                               PM|
  E S S S S S S +S  S S S S S S S   E S S S S S S +S  S S S S S S S
|---------------------------------|---------------------------------|
|---------------------------------|---------------------------------|
|-------5-7-7-7-(7)-8-8-8-8-8-8-8-|-------5-7-7-7-(7)-8-8-8-8-8-8-8-|
|-0-------------------------------|-0-------------------------------|
|-0-0-0-3-5-5-5-(5)-6-6-6-6-6-6-6-|-0-0-0-3-5-5-5-(5)-6-6-6-6-6-6-6-|
|-0-0-0---------------------------|-0-0-0---------------------------|


  D5    N.C.                        D5    N.C.
    PM|                               PM|
  E S S S S S S +S  S S S S S S S   E S S S S S S +S   S  S  S  S  S  S  S
|---------------------------------|----------------------------------------|
|---------------------------------|----------------------------------------|
|-------5-7-7-7-(7)-8-8-8-8-8-8-8-|-------5-7-7-7-(7)-10-10-10-10-10-10-10-|
|-0-------------------------------|-0--------------------------------------|
|-0-0-0-3-5-5-5-(5)-6-6-6-6-6-6-6-|-0-0-0-3-5-5-5-(5)--8--8--8--8--8--8--8-|
|-0-0-0---------------------------|-0-0-0----------------------------------|


  D5
  W          W          W          W
|----------|----------|----------|------|
|----------|----------|----------|------|
|----------|----------|----------|------|
|-0--------|-0--------|-0--------|-0----|
|-0--------|-0--------|-0--------|-0----|
|-0--------|-0--------|-0--------|-0----|


 Bridge
  D5          N.C. D5          N.C.
  PM|              PM|
  S S E Q  Q  Q    S S E Q  Q  Q
|----------------|----------------|
|----------------|----------------|
|-------------8--|-------------8--|
|----------------|----------------|
|-0-0---------6--|-0-0---------6--|
|-0-0------------|-0-0------------|


  D5          N.C. D5          N.C.
  PM|              PM|
  S S E Q  Q  Q    S S E Q  Q  Q
|----------------|----------------|
|----------------|----------------|
|-------------8--|-------------8--|
|----------------|----------------|
|-0-0---------6--|-0-0---------6--|
|-0-0------------|-0-0------------|


   Out-Chorus
    D5    N.C.                        D5    N.C.
      PM|                               PM|
    E S S S S S S +S  S S S S S S S   E S S S S S S +S  S S S S S S S
||----------------------------------|----------------------------------|
||o---------------------------------|----------------------------------|
||--------5-7-7-7-(7)-8-8-8-8-8-8-8-|-------5-7-7-7-(7)-8-8-8-8-8-8-8--|
||--0-------------------------------|-0--------------------------------|
||o-0-0-0-3-5-5-5-(5)-6-6-6-6-6-6-6-|-0-0-0-3-5-5-5-(5)-6-6-6-6-6-6-6--|
||--0-0-0---------------------------|-0-0-0----------------------------|


  D5    N.C.                        D5    N.C.
    PM|                               PM|
  E S S S S S S +S  S S S S S S S   E S S S S S S +S   S  S  S  S  S  S  S
|---------------------------------|-----------------------------------------||
|---------------------------------|----------------------------------------o||
|-------5-7-7-7-(7)-8-8-8-8-8-8-8-|-------5-7-7-7-(7)-10-10-10-10-10-10-10--||
|-0-------------------------------|-0---------------------------------------||
|-0-0-0-3-5-5-5-(5)-6-6-6-6-6-6-6-|-0-0-0-3-5-5-5-(5)--8--8--8--8--8--8--8-o||
|-0-0-0---------------------------|-0-0-0-----------------------------------||


  D5
  W          +W           +W           +W
|----------|------------|------------|--------*|
|----------|------------|------------|--------*|
|----------|------------|------------|--------*|
|-0--------|-(0)--------|-(0)--------|-(0)----*|
|-0--------|-(0)--------|-(0)--------|-(0)----*|
|-0--------|-(0)--------|-(0)--------|-(0)----*|




--------------------------------------------------------------------------------


Duration Legend
---------------
W - whole; H - half; Q - quarter; E - 8th; S - 16th; T - 32nd; X - 64th; a - acciaccatura
+ - note tied to previous; . - note dotted; .. - note double dotted
Uncapitalized letters represent notes that are staccato (1/2 duration)
Irregular groupings are notated above the duration line
Duration letters will always appear directly above the note/fret number it represents the
duration for.  Duration letters with no fret number below them represent rests.  Multi-
bar rests are notated in the form Wxn, where n is the number of bars to rest for.  Low
melody durations appear below the staff

Tablature Legend
----------------
 h   - hammer-on
 p   - pull-off
 b   - bend
 pb  - pre-bend
 r   - bend release (if no number after the r, then release immediately)
 /\  - slide into or out of (from/to "nowhere")
 s   - legato slide
 S   - shift slide
 - natural harmonic
[n]  - artificial harmonic
n(n) - tapped harmonic
 ~   - vibrato
 tr  - trill
 T   - tap
 TP  - trem. picking
 PM  - palm muting
\n/  - tremolo bar dip; n = amount to dip
 \n  - tremolo bar down
 n/  - tremolo bar up
/n\  - tremolo bar inverted dip
 =   - hold bend; also acts as connecting device for hammers/pulls
 <> - volume swell (louder/softer)
 x   - on rhythm slash represents muted slash
 o   - on rhythm slash represents single note slash

Misc Legend
-----------
 |  - bar
||  - double bar
||o - repeat start
o|| - repeat end
*|  - double bar (ending)
 :  - bar (freetime)
 $  - Segno
 &  - Coda
Tempo markers -  = BPM(8/16=s8/s16), where s8 = swing 8ths, s16 = swing 16ths


Tap to rate this tab
# A B C D E F G H I J K L M N O P Q R S T U V W X Y Z