Song name
# A B C D E F G H I J K L M N O P Q R S T U V W X Y Z

12 Stones - Last Song tab

Help us improve GuitareTab! Take a short survey!
 Artist: 12 Stones
 Song: The Last Song
 Album: Potter's Field
 Tuning: Drop C

 Intro (first time palm muted)
 |-----------------------------------------------------------------------------------------------|
 |-----------------------------------------------------------------------------------------------|
 |-----------------------------------------------------------------------------------------------|
 |---------8-8-------------4-4-------------6-6-------------6-------------------------------------|
 |-----6-6-----6-6-----2-2-----2-2-----4-4-----4-4-----4-4---------------------------------------|
 |-6-6-------------2-2-------------4-4-------------4-4-------------------------------------------|


 Verse (sounds good with some chorus)
 |------------------------------------------|
 |------------------------------------------|
 |------------------------------------------|
 |--------8-8---------4-4------6-6-6-6-6-6--|
 |---6----6-6----2----2-2---4--4-4-4-4-4-4--|
 |-6----6-6-6--2----2-2-2-4----4-4-4-4-4-4--|


 Chorus
 |-----------------------------------------------------------------------------------------------|
 |-----------------------------------------------------------------------------------------------|
 |-----------------4-4-4-4-6-6-6-6---------------------------------------------------------------|
 |-6-6-6-6-4-4-4-4-2-2-2-2-4-4-4-4-6-6-6-6-4-4-4-4-2-2-2-2-2-2-2-2-------------------------------|
 |-6-6-6-6-4-4-4-4-2-2-2-2-4-4-4-4-6-6-6-6-4-4-4-4-2-2-2-2-2-2-2-2-------------------------------|
 |-6-6-6-6-4-4-4-4-----------------6-6-6-6-4-4-4-4-2-2-2-2-2-2-2-2-------------------------------|

 Post Chorus
 |-----------------------------------------------------------------------------------------------|
 |-----------------------------------------------------------------------------------------------|
 |-----------------------------------------------------------------------------------------------|
 |---------8-8-------------4-4---------------8-8-------------4-4---------------------------------|
 |-----6-6-----6-6-----2-2-----2-2-------6-6-----6-6-----2-2-----2-2-----------------------------|
 |-6-6-------------2-2---------------6-6-------------2-2-----------------------------------------|

 Solo Background
 |-----------------------------------------------------------------------------------------------|
 |-----------------------------------------------------------------------------------------------|
 |-----------------------------------------------------------------------------------------------|
 |-6--6-x-x-6--6-6--6-6-6-6-2--2-x-x-2--2-2--2-2-2-2---------------------------------------------|
 |-6--6-x-x-6--6-6--6-6-6-6-2--2-x-x-2--2-2--2-2-2-2---------------------------------------------|
 |-6--6-x-x-6--6-6--6-6-6-6-2--2-x-x-2--2-2--2-2-2-2---------------------------------------------|

 Thats it. Hopefully someone can post the solo.
Related for Last Song tab