Song name
# A B C D E F G H I J K L M N O P Q R S T U V W X Y Z

125 Rue Montmartre - Revolter tab

www.myspace.com/125ruemontmatre

125 RUE MONTMARTRE - REVOLTER

    e|-------0------|
    b|---6---5------|
GTR G|-5---5-5------|
 1  D|--------------| x4
    A|--------------|
    E|--------------|

    e|-------0----------------|
    b|---6---5----------------|
GTR G|-5---5-5----------------|
 1  D|------------------------| x4
    A|------------------------|
    E|------------------------|

    e|-------0--------0---5---|
    b|---6---5----6-----6---6-|
GTR G|-5---5-5--5---5---------|
 2  D|------------------------| x4
    A|------------------------|
    E|------------------------|

    e|-------0----5-|
    b|---6---5--6---|
GTR G|-5---5-5------|
1+2 D|--------------| x4
    A|--------------|
    E|--------------|

    e|----------------------------------|
    b|----------------------------------|
GTR G|-10101010101010101010101010101010-|
1+2 D|----------------------------------|
    A|-8-8-8-8-8-8-8-8------------------|
    E|-----------------8-8-8-8-8-8-8-8--|

    e|----------------------------------|
    b|----------------------------------|
GTR G|-1010101010101010-1010101010109-9-|
1+2 D|----------------------------------|
    A|-8-8-8-8-8-8-8-8------------------|
    E|------------------8-8-8-8-8-8-8-8-|

repeat

    e|-----|
    b|-----|
GTR G|-10--|
1+2 D|-----|
    A|-8---|
    E|-10--|

    e|-------0------|
    b|---6---5------|
GTR G|-5---5-5------|
 1  D|--------------| x4
    A|--------------|
    E|--------------|

    e|-------0----------------|
    b|---6---5----------------|
GTR G|-5---5-5----------------|
 1  D|------------------------| x4
    A|------------------------|
    E|------------------------|

    e|-------0--------0---5---|
    b|---6---5----6-----6---6-|
GTR G|-5---5-5--5---5---------|
 2  D|------------------------| x4
    A|------------------------|
    E|------------------------|

    e|-------0----5-|
    b|---6---5--6---|
GTR G|-5---5-5------|
1+2 D|--------------| x4
    A|--------------|
    E|--------------|

END
Tap to rate this tab
 
# A B C D E F G H I J K L M N O P Q R S T U V W X Y Z