Song name
# A B C D E F G H I J K L M N O P Q R S T U V W X Y Z

1349 - Serpentine Sibilance tab

Help us improve GuitareTab! Take a short survey!
1349 - Serpentile Sibilance

Not perfect but you get the basics of it

Just the first 3 riffs (I played in standard, not sure if its in e or d)


The timing is pretty easy.


----------------------------------------------------------------|
-----------------------------"---"--"--"-"-"--------------------|
-----------------------------3---5--5--7-7-8--------------------|
-2-----3---6--5--2--3--6-----1---3--3--5-5-6--------------------|
-2-----3---6--5--2--3--6----------------------------------------|repeat a lot
-0-----1---4--3--0--1--4---0---0--------------------------------|


-------------------------------------|
-------------------------------------|
-------------------------------------|
----3--4--5--4----2------------------|
----1--2--3--2----2------------------|
------------------0------------------|


-------0--------------------------------------------------------|
-------0--------------------------------------------------------|
-------4--------------------------------------------------------|
-------5----8--8--8--8--9-8-----8--8--8--9--9--8h9p8------------|
-------3--------------------------------------------------------|
-0-0-0----------------------------------------------------------|

The rest doesn't really seem too tough, I just don't feel like tabbing more. :p

Stupifiedsnake (on last.fm if you need me)
Related for Serpentine Sibilance tab