Song name
# A B C D E F G H I J K L M N O P Q R S T U V W X Y Z

1349 - Satanic Propaganda tab

-------------------------------------------------------------------------------
			     Satanic Propaganda - 1349
-------------------------------------------------------------------------------
Tabbed by:Ltparkbum
Email:

Tuning:standard

e|-------------------------------------------------------------------------|
B|-------0--------------0-------------0-------------0----------------------|
G|---------3-0------------3-0-----------3-3-------3---3--------------------|
D|-----2--------------2-------------2-----------3--------------------------|
A|---2--------------2-------------2-----------1----------------------------|
E|-0--------------0-------------0------------------------------------------|



| /  slide up
| \  slide down
| h  hammer-on
| p  pull-off
| ~  vibrato
| +  harmonic
| x  Mute note
===============================================================================
Tap to rate this tab
# A B C D E F G H I J K L M N O P Q R S T U V W X Y Z