Song name
# A B C D E F G H I J K L M N O P Q R S T U V W X Y Z

1349 - Serpentine Sibilance tab

-------------------------------------------------------------------------------
                                              Serpentine Sibilance - 1349
-------------------------------------------------------------------------------
Tabbed by:Dead Sea
Tuning:Standard

This song was shown to me by Archaon himself, and is extremely accurate.

PLEASE NOTE: the last 4 chords in the first riff and all the chords in the last riff are 
strummed very quickly (tremolo picked, flutter picked, whatever)


   RIFF 1
e|---------------------------------------------------------------------------------|
B|---------------------------------------------------------------------------------|
G|-----------------------------------------5----7----8-----------------------------|
D|-----3--6--5-----3--6--------8----------6----8----9------------------------------|
A|--2--3--6--5--2--3--6--------6----------8---10---11------------------------------|
E|--0--1--4--3--0--1--4--0pm--6---0pm----------------------------------------------|


   RIFF 2
e|----------------------------------------------------------------------------------|
B|----------------------------------------------------------------------------------|
G|----------------------------------------------------------------------------------|
D|---7--9--10--9--2-----------------------------------------------------------------|
A|---7--9--10--9--2-----------------------------------------------------------------|
E|---5--7--8---7--0-----------------------------------------------------------------|


   RIFF 3
e|-------------------------------------------------------------------------------|
B|------------0------------0-----------------------------------------------------|
G|------------0------------0-----------------------------------------------------|
D|------------0------------0---5--------8--8--8--8--9--8--8--8--8--9--9--8--9--8-|
A|---2--2--2--3--2--2--2--3---3--slide--6--6--6--6--6--6--6--6--6--6--6--6--6--6-|
E|---0--0--0--0--0--0--0--0------------------------------------------------------|

   RIFF 4
e|-----------------------------------------------------------------------------|
B|-----------------------------------------------------------------------------|
G|-----------------------------------------------------------------------------|
D|-----------------------------------------------------------------------------|
A|------6666--9999-------7777--10-10-10-10--9999--12-12-12-12------------------|
E|-0000-------------0000-------------------------------------------------------|

e|-----------------------------------------------------------------------------|
B|-----------------------------------------------------------------------------|
G|-----------------------------------------------------------------------------|
D|-----------------------------------------------------------------------------|
A|--10-10-10-10--13-13-13-13--10-10-10-10--14-14-14-14-------------------------|
E|-----------------------------------------------------------------------------|

e|-----------------------------------------------------------------------------|
B|-----------------------------------------------13-13-13-13-------------------|
G|---------------------------------12-12-12-12---------------12-12-12-12-------|
D|--------------------14-14-14-14----------------------------------------------|
A|-------12-12-12-12-----------------------------------------------------------|
E|--0000-----------------------------------------------------------------------|

e|-----------------------------------------------------------------------------|
B|-----------------------------------------------------------------------------|
G|-----------------------------------------------------------------------------|
D|-14-14-14-14-----------------------------------------------------------------|
A|--------------12-12-12-12----------------------------------------------------|
E|-----------------------------------------------------------------------------|


  RIFF 5
e|-----------------------------------------------------------------------------------|
B|-----------------------------------------------------------------------------------|
G|--------9--8-----------------------------------------------------------------------|
D|--9----10-10---9--9--9--9--9-------------------------------------------------------|
A|--7-7----------7--7--7--7--7-------------------------------------------------------|
E|----0------------------------------------------------------------------------------|
Tap to rate this tab
# A B C D E F G H I J K L M N O P Q R S T U V W X Y Z