Song name
# A B C D E F G H I J K L M N O P Q R S T U V W X Y Z

13th Floor Elevators - She Lives In A Time Of Her Own tab

this is the chords to the main ryth to the song u can easily work out the structure

-----3---1--3---------------------|
--3--0---1--3---------------------|
--2--0---2--4---------------------|
-----0---3--5---------------------|
-----2---3--5---------------------|
-----3---1--3---------------------|

-------------------------|
--3-3-3-3-3-3-5-6-3------|
-------------------------|
--0-0-0-0-0-0-0-0-0------|
-------------------------|
-------------------------|

you can work out the other bit easily usin that

and u will probly no the blues bit so i dont have to rite that

hav fun i will b tabbin more 13th floor elevators songs soon so chek out 4 more
Tap to rate this tab
# A B C D E F G H I J K L M N O P Q R S T U V W X Y Z