Song name
# A B C D E F G H I J K L M N O P Q R S T U V W X Y Z

143 - Sa Isang Sulyap Mo tab

Sa isang sulyap mo


Tabbed By: Christian Bendaņa
Facebook: metallover04@yahoo.com


Instrument used: Guitar, Keyboard, Drum.

Intro:

Guitar: G-Em- C- D     2 times (plucking lang sya simula sa low E string pababa)

Keyboard: (Translated to guitar)
e-------------------------------10--|----------7----|------|-----|
b-----------10-12----10-12----------|-8---7-8------ |--5---|--3--|
g-------12--------------------------|---------------|------|-----|     
d---12------------------------------|---------------|------|-----|
a-----------------------------------|---------------|------|-----|
E-----------------------------------|---------------|------|-----|

 Verse:

Guitar: G- Em- C- D    2 times
        C- D- Bm- Em- C- D- C- G

Chorus:

Guitar: G- D- Em- Bm- C- G- Am- D 


Repeat intro: 1 time only
Repeat verse:
Repeat Chorus:
Repeat intro: 1 time only

Adlib:

Guitar: C- D- Bm- Em- C- D- C- G

Keyboard: (Translated to guitar)

e---8------------------10---------------7-8-----------------------------|
b-8-----5-7----8-7-8------8-10-8---8-10-------5-8-7--8-10-8-------------|
g-----------------------------------------------------------------------|
d-----------------------------------------------------------------------|
a-----------------------------------------------------------------------|
E-----------------------------------------------------------------------|

Repeat Chorus:
Outro:

Guitar: C- Bm- Am- D- G


  
Tap to rate this tab
 
# A B C D E F G H I J K L M N O P Q R S T U V W X Y Z