Song name
# A B C D E F G H I J K L M N O P Q R S T U V W X Y Z

16 Horsepower - Bad Moon Rising tab

Bad Moon Risiní
16 Horsepower
From the album: Hoarse

Tuning:  DGDGBbD


The AMAZING version of the song is really pretty simple.  Obviously itís played on slide 
guitar. Here are the chords; just work out the pattern and rhythm:

Intro/Verse

D |-----7---5---7--------7---10---7---------------|
Bb|-----7---5---7--------7---10---7---------------|
G |-----7---5---7--------7---10---7---------------|
D |-----7---5---7--------7---10---7---------------|
G |-----7---5---7--------7---10---7---------------|
D |-----7---5---7--------7---10---7---------------|

Chorus:  Give each chord a 4-count

D |---12----7---2---7--------------------|
Bb|---12----7---2---7--------------------|
G |---12----7---2---7--------------------|
D |---12----7---2---7--------------------|
G |---12----7---2---7--------------------|
D |---12----7---2---7--------------------|


Simple, right?  Have fun!
Tap to rate this tab
# A B C D E F G H I J K L M N O P Q R S T U V W X Y Z