Song name
# A B C D E F G H I J K L M N O P Q R S T U V W X Y Z

16 Volt - Alkali chords

Highlighted       Show chord diagrams
16 Volt – Alkali 
(Half Step down, but i wouldn´t bet my arse on it)

e|----|---|---|---|---|---|---|---|---|---|
B|----|---|---|---|---|---|---|---|---|---|
G|----|---|---|---|---|---|---|---|---|---|
D|----|---|---|---|---|---|---|---|---|---|
A|----|---|---|---|---|---|---|---|---|---|
E|-10-|-5-|-3-|-5-|-3-|-5-|-3-|-5-|-6-|-5-|

e|----|---|---|---|---|---|---|---|
B|----|---|---|---|---|---|---|---|
G|----|---|---|---|---|---|---|---|
D|----|---|---|---|---|---|---|---|
A|----|---|---|---|---|---|---|---|
E|-10-|-5-|-3-|-5-|-3-|-5-|-3-|-5-|

D, A, clear, A, clear ,A, clear, A, Bb, A
D, A, clear, A, clear ,A, clear, A

(with clear i mean to strum over the guitar without holding any chord)

    Asus2      C
My skin is opaque
     G          D
Like white seaweed
Asus2         C
Shallow and weak
   G          D
I have no feeling

(Also Em, Cm, G, Asus2 sounds good)

D, A, clear, A, clear ,A, clear, A, Bb,A
See through me
D, A, clear, A, clear ,A, clear, A
Nothing ever makes it through
D, A, clear, A, clear ,A, clear, A, Bb,A
See through me
D, A, clear, A, clear ,A, clear, A
Even though i promised it

Asus2            C
Most worthless shell
       G            D
Like a ghost in a dream
Asus2         C
Cantisending life
     G            D
Like satin white sheath

Chorus

A, A     C C C C C,Bb
Can I 
E, E      G G G G G,F
ask you 
A, A     C C C C C,Bb
something?
E, E      G G G G G,F
Do you see me 
A, A     C C C C C,Bb
near you?
E, E      G G G G G,F
Slowly 
A, A     C C C C C,Bb
going over it
E, E      G G G G G,F
Alkali

2nd Guitar

e|-5-|-7-|-5-|-7-|-8-|
B|---|---|---|---|---|
G|---|---|---|---|---|
D|---|---|---|---|---|
A|---|---|---|---|---|
E|---|---|---|---|---|

D, A, clear, A, clear ,A, clear, A, Bb,A
D, A, clear, A, clear ,A, clear, A

e|---|---|---|---|---|---|---|---|---|---|---|---|---|---|---|---|---|---|
B|---|---|---|---|---|---|---|---|---|---|---|---|---|---|---|---|---|---|
G|---|---|---|---|---|---|---|---|---|---|---|---|---|---|---|---|---|---|
D|---|---|---|---|---|---|---|---|---|---|---|---|---|---|---|---|---|---|
A|---|---|---|---|---|---|---|---|---|---|---|---|---|---|---|---|---|---|
E|-5-|-5-|-5-|-7-|-7-|-7-|-7-|-7-|-6-|-0-|-0-|-0-|-3-|-3-|-3-|-3-|-3-|-1-|

You make it all clear
Nothing makes it better
You make it all clear

A, A     CCCCC,Bb   E, E      G G G G G,F
Nothing makes it better
A, A     CCCCC,Bb   E, E      GGGGG,F
You make it all clear
A, A     CCCCC,Bb   E, E      GGGGG,F
Nothing makes it better
A, A     CCCCC,Bb   E, E      GGGGG,F
You make it all clear
A, A     CCCCC,Bb   E, E      GGGGG,F
Nothing makes it better

Chorus

 A, A     CCCCC,Bb
Can I 
E, E      GGGGG,F
ask you 
A, A     CCCCC,Bb
something?
E, E      GGGGG,F
Do you see me 
A, A     CCCCC,Bb
near you?
E, E      GGGGG,F
Slowly 
A, A     CCCCC,Bb
going over it
E, E      GGGGG,F
Alkali

2nd Guitar

e|-5-|-7-|-5-|-7-|-8-|
B|---|---|---|---|---|
G|---|---|---|---|---|
D|---|---|---|---|---|
A|---|---|---|---|---|
E|---|---|---|---|---|

Have Fun!
Tabbed by JeetJerome
Tap to rate this tab
 
# A B C D E F G H I J K L M N O P Q R S T U V W X Y Z