Guitaretab - guitar tabs
Song name
# A B C D E F G H I J K L M N O P Q R S T U V W X Y Z

16 Volt - At The End chords

Highlighted       Show chord diagrams
16 Volt – At the end
Note:
I dunno if itīs better played tuned half step down and change chords. I canīt here if 
is the right chord.

Intro:
G#5       F5       F#5       E5

Refrain:

   G#5        G#5             G#5         G#5
e|-4-|-4-|---|-4-|-4-|---|---|-4-|-4-|---|-4-|-4-|---|---|------|
B|-4-|-4-|---|-4-|-4-|---|---|-4-|-4-|---|-4-|-4-|---|---|------|
G|-4-|-4-|---|-4-|-4-|---|---|-4-|-4-|---|-4-|-4-|---|---|-4/6/7|
D|-6-|-6-|---|-6-|-6-|---|---|-6-|-6-|---|-6-|-6-|---|---|------|
A|-6-|-6-|---|-6-|-6-|---|---|-6-|-6-|---|-6-|-6-|---|---|------|
E|-4-|-4-|---|-4-|-4-|---|---|-4-|-4-|---|-4-|-4-|---|---|------|
  G#5         G#5             G#5         G#5
e|-4-|-4-|---|-4-|-4-|---|---|-4-|-4-|---|-4-|-4-|---|---|-4-|-4-|
B|-4-|-4-|---|-4-|-4-|---|---|-4-|-4-|---|-4-|-4-|---|---|-4-|-4-|
G|-4-|-4-|---|-4-|-4-|---|---|-4-|-4-|---|-4-|-4-|---|---|-6-|-6-|
D|-6-|-6-|---|-6-|-6-|---|---|-6-|-6-|---|-6-|-6-|---|---|-6-|-6-|
A|-6-|-6-|---|-6-|-6-|---|---|-6-|-6-|---|-6-|-6-|---|---|-4-|-4-| x2
E|-4-|-4-|---|-4-|-4-|---|---|-4-|-4-|---|-4-|-4-|---|---|-4-|-4-|
[ Tab from: http://www.guitaretab.com/numeric/16-volt/245214.html ]
One day my head filled up with thought
One day I said i would never get caught
One day I explored all the possible ways
One day I swore i would understand it

Chorus:
G#5                  F5
      I open up
F#5                   E5
      I dream awake
G#5                  F5
      I open up
G#5                  F5
      and I dream

Refrain:
One night my good intentions turned me away
One night I left my hell and found out I stayed
One night I became all the people I hate
One night I swore i would never relate

Chorus:
G#5                  F5
      I open up
F#5                   E5
      I dream awake
G#5                  F5
      I open up
G#5                  F5
      and I dream

2nd Chorus:
G#5
      And I find
F5            F#5
      There is light
G#5
      There is hope
F5            F#5
      There is a glow

G#5       F5       F#5       E5
Repeat 2nd Chorus
Iīm not satisfied with that, but better then nothing. I hope there is someone out there, 
does better!
HF
Tabbed out by JeetJerome
JeetJerome@web.de
Related for At The End chords
At The End chords by 16 Volt