Song name
# A B C D E F G H I J K L M N O P Q R S T U V W X Y Z

16 Volt - Dont Pray tab

16 Volt
Don't Pray
From Supercoolnothing

Tabbed by AlphaOnOne

Riff A:
D|---------------------------------------------------------------------------|
A|---------------------------------------------------------------------------|
F|---------------------------------------------------------------------------|
C|0-0--0-0--0-0--0-0--0-0--0--6-6--6-6--6-6--6-6--6-6--6--6-5--5-5--5-5--5-5-|
G|0-0--0-0--0-0--0-0--0-0--0--6-6--6-6--6-6--6-6--6-6--6--6-5--5-5--5-5--5-5-|
C|0-0--0-0--0-0--0-0--0-0--0--6-6--6-6--6-6--6-6--6-6--6--6-5--5-5--5-5--5-5-|

D|---------------------------------------------------------------------------|
A|---------------------------------------------------------------------------|
F|---------------------------------------------------------------------------|
C|-5-5--5--5-3--3-3--3-3--9-9-9-9-9-8-8--------------------------------------|
G|-5-5--5--5-3--3-3--3-3--9-9-9-9-9-8-8--------------------------------------|
C|-5-5--5--5-3--3-3--3-3--9-9-9-9-9-8-8--------------------------------------|


Riff B:
D|---------------------------------------------------------------------------|
A|---------------------------------------------------------------------------|
F|---------------------------------------------------------------------------|
C|-0-1-0-0-2---0------0-1-0-0-2---0-0-0--------------------------------------|
G|-0-1-0-0-2---0------0-1-0-0-2---0-0-0--------------------------------------|
C|-0-1-0-0-2---0------0-1-0-0-2---0-0-0--------------------------------------|
       . .     .          . .     . . .



Riff A: 2x
Riff B: 4x
Riff A: 2x
Riff B: 4x
Riff A: 2x
Bridge
Riff A: 6x
Tap to rate this tab
# A B C D E F G H I J K L M N O P Q R S T U V W X Y Z