Song name
# A B C D E F G H I J K L M N O P Q R S T U V W X Y Z

16 Volt - Suffering You tab

Guitarist : E. Powell
Tuning    : Drop C (low to high - CGCFAD)

Tabbed By : Martin Smith (martinez@redfive.nildram.co.uk)

Tabbed quite quickly after I figured this out 
at work today. The rhythm/strumming pattern is
probably a little out, but listen to the CD whilst
looking at this tab and it should be clear. It's a 
really simple song that shouldn't be too hard to master.
I'd really appreciate any feedback or corrections on this tab! 

Intro Riff
D|-------------------------------|
A|-------------------------------|
F|-------------------------------|
C|--6-0-0 0 0 5 0 0 0 3 0 5 0----|
G|--6-0-0 0 0 5 0 0 0 3 0 5 0----|
C|--6-0-0-0-0-5-0-0-0-3-0-5-0----|

Verse Riff ('Hey, You...') - palm muted, very choppy strumming
D|-------------------------------|
A|-------------------------------|
F|-------------------------------|
C|--6-0-0-0-0-5-0-0-0-3-0-5-0----|
G|--6-0-0-0-0-5-0-0-0-3-0-5-0----|
C|--6-0-0-0-0-5-0-0-0-3-0-5-0----|
    * * * * * * * * * * * * *     

Pre-Chorus ('Set it off...')
D|-------------------------------|
A|-------------------------------|
F|-------------------------------|
C|--0-3-0-0-0-3-0-0-0-3-0-3------|
G|--0-3-0-0-0-3-0-0-0-3-0-3------|
C|--0-3-0-0-0-3-0-0-0-3-0-3------|
                                  
Chorus ('Sinking in the silence...')
D|----------------------------------|
A|----------------------------------|
F|--5-5-5-------7-7-7---------------|
C|--5-5-5-3-3-3-7-7-7-6-6-6-6-3-3-3-|
G|--3-3-3-3-3-3-5-5-5-6-6-6-6-3-3-3-|
C|--------3-3-3-------6-6-6-6-3-3-3-|
Tap to rate this tab
# A B C D E F G H I J K L M N O P Q R S T U V W X Y Z