Song name
# A B C D E F G H I J K L M N O P Q R S T U V W X Y Z

16th Avenue - Tentativa Favorita tab

16th Avenue
Tentativa Favorita

Verse:
---------------------[]----------------------------------------------|
----------[pause here 2nd time only]--{D5}---------------------------|
--{A5}---------------[]7-77-7-77-7-77-7-77-7----{G5}-----------------|
--77-7-77-7-77-7-77-7[]7-77-7-77-7-77-7-77-7-3-55-5-55-5-55-5-55-5---|
--77-7-77-7-77-7-77-7[]5-55-5-55-5-55-5-55-5-3-55-5-55-5-55-5-55-5---|
--55-5-55-5-55-5-55-5[]----------------------5-33-3-33-3-33-3-33-3---|
pm..   ..   ..   ..     ..   ..   ..   ..     ..   ..   ..   ..

--------------------------|
--------------------------|
-{A5}---------------------| {x4}
-7-77-7-77-7-77-7-77-7----|
-7-77-7-77-7-77-7-77-7----|
-5-55-5-55-5-55-5-55-5----|
pm ..   ..   ..   ..
(4th Time Palm Mute All Last A5's)

Chorus:
--------------------------------------------------|
---------{D5}-------------------------------------|
-{G5}----7-7-7-7-{A5}------9999-------------------|
-5-5-5-5-7-7-7-7-7-7-7-7---xxxx-------------------|{x2}
-5-5-5-5-5-5-5-5-7-7-7-7---7777-------------------|
-3-3-3-3---------5-5-5-5--------------------------|

--------------------------------------------------|    (do not play the last)
---------{D5}-------------------------------------|     (7x9 chord 2nd time)
-{G5}----7-7-7-7-{A5}------9999-------------------|
-5-5-5-5-7-7-7-7-7-7-7-7---xxxx-------------------|{x2}
-5-5-5-5-5-5-5-5-7-7-7-7---7777-------------------|
-3-3-3-3---------5-5-5-5--------------------------|
(a little different strumming pattern easy to find out)

Interlude:
---------------------------------------------------------------------|
--------------------------{D5}---------------------------------------|
--{A5}-----------------7-77-7-77-7-77-7-77-7----{G5}-----------------|
--77-7-77-7-77-7-77-7--7-77-7-77-7-77-7-77-7-3-55-5-55-5-55-5-55-5---|
--77-7-77-7-77-7-77-7--5-55-5-55-5-55-5-55-5-3-55-5-55-5-55-5-55-5---|
--55-5-55-5-55-5-55-5------------------------5-33-3-33-3-33-3-33-3---|
pm..   ..   ..   ..     ..   ..   ..   ..     ..   ..   ..   ..

--------------------------|
--------------------------|
-{A5}---------------------|
-7-77-7-77-7-77-7-77-7----|
-7-77-7-77-7-77-7-77-7----|
-5-55-5-55-5-55-5-55-5----|
pm ..   ..   ..   ..

Verse:
---------------------------------------------------------------------|
--------------------------{D5}---------------------------------------|
--{A5}-----------------7-77-7-77-7-77-7-77-7----{G5}-----------------|
--77-7-77-7-77-7-77-7--7-77-7-77-7-77-7-77-7-3-55-5-55-5-55-5-55-5---|
--77-7-77-7-77-7-77-7--5-55-5-55-5-55-5-55-5-3-55-5-55-5-55-5-55-5---|
--55-5-55-5-55-5-55-5------------------------5-33-3-33-3-33-3-33-3---|
(palm mute is a little different this verse)

--------------------------|
--------------------------|
-{A5}---------------------|{x2}
-7-77-7-77-7-77-7-77-7----|
-7-77-7-77-7-77-7-77-7----|
-5-55-5-55-5-55-5-55-5----|

Chorus:
--------------------------------------------------|
---------{D5}-------------------------------------|
-{G5}----7-7-7-7-{A5}------9999-------------------|
-5-5-5-5-7-7-7-7-7-7-7-7---xxxx-------------------|{x2}
-5-5-5-5-5-5-5-5-7-7-7-7---7777-------------------|
-3-3-3-3---------5-5-5-5--------------------------|

--------------------------------------------------|    (do not play the last)
---------{D5}-------------------------------------|     (7x9 chord 2nd time)
-{G5}----7-7-7-7-{A5}------9999-------------------|
-5-5-5-5-7-7-7-7-7-7-7-7---xxxx-------------------|{x2}
-5-5-5-5-5-5-5-5-7-7-7-7---7777-------------------|
-3-3-3-3---------5-5-5-5--------------------------|
(a little different strumming pattern easy to find out)


Bridge pt. 1 {unknown}

Bridge pt. 2
-------------------------------------------------|
-------------------------------------------------|
-44444444666666667777777777777777----------------|{x2}
-xxxxxxxxxxxxxxxxxxxxxxxxxxxxxxxx----------------|
-22222222444444445555555555555555----------------|
-------------------------------------------------|

-------------------------------------------------|
-------------------------------------------------|
-------------------------------------------------|
-5~-----5~-------5-5555555-5~--------------------|
-5~-----5~-------5-5555555-5~--------------------|
-3~-----3~-------3-3333333-3~--------------------|

Chorus:
-------------------------------------------------|
-------------------------------------------------|
---------7-7-7-7----------9999-------------------|
---------7-7-7-7-7-7-7-7--xxxx-------------------|
---------5-5-5-5-7-7-7-7--7777-------------------|
-[Rest]----------5-5-5-5-------------------------|

-------------------------------------------------|
---------{D5}------------------------------------|
-{G5}----7-7-7-7-{A5}------9~--------------------|
-5-5-5-5-7-7-7-7-7-7-7-7---x---------------------|
-5-5-5-5-5-5-5-5-7-7-7-7---7~--------------------|
-3-3-3-3---------5-5-5-5-------------------------|

--------------------------------------------------|    (do not play the last)
---------{D5}-------------------------------------|     (7x9 chord 2nd time)
-{G5}----7-7-7-7-{A5}------9999-------------------|
-5-5-5-5-7-7-7-7-7-7-7-7---xxxx-------------------|{x2}
-5-5-5-5-5-5-5-5-7-7-7-7---7777-------------------|
-3-3-3-3---------5-5-5-5--------------------------|

Outro:
--------------------------------------------------|
--------------------------------------------------|
-----7~-------------------------------------------|
--7~-7~-5~---5~-4~-7~-----------------------------|
--7~-5~-5~---5~-4~-7~-----------------------------|
--5~----3~---3~-2~-5~-----------------------------|

                       {The End}
www.purevolume.com/16thavenue
Tap to rate this tab
# A B C D E F G H I J K L M N O P Q R S T U V W X Y Z