Song name
# A B C D E F G H I J K L M N O P Q R S T U V W X Y Z

1969 - Wreck Me tab

Written by: Matthew Edlin and Trevor Ginn

Link to official website:
http://profile.myspace.com/index.cfm?fuseaction=user.viewprofile&friendid=58574531

Ok, so this is an awesome song off 1969's new and only album Maya, written by one of the 
amazing producers in music, Butch Walker.
We couldn't find any tabs on this website or any other websites for that matter, so we 
to do it ourselves.
Sounds right to us, haha.
If you have any questions, just E-mail us at Tr3v0rG1nn@aol.com.
Enjoy =]


Notes:
*=Harmonics
^=Bend
V=Vibrato
t=Tremolo
~=Let Ring

Tuning Standard: EADGBe


Verse 1(Intro):
Guitar One
e|---------------------|
B|-8t*(x28)------------|
G|----------8t*(x4)----|
D|---------------------|
A|---------------------|Play this 12 times.
E|---------------------|

Guitar Two
e|-------9t-5t---------|
B|-7t-8t-------8t-5t---|
G|---------------------|
D|---------------------|
A|---------------------|Play this after the 6th time the first guitar plays
E|---------------------|

Chorus:
Guitar One
e|---------------------------------|
B|---------------------------------|
G|---------------------------------|
D|-5-5-5-5-5-5-5-5-5-5-5-5-5-7-7-7-|
A|-5-5-5-5-5-5-5-5-5-5-5-5-5-7-7-7-|
E|-3-3-3-3-3-3-3-3-3-3-3-3-3-5-5-5-|

e|---------------------------------|
B|---------------------------------|
G|---------------------------------|
D|-5-5-5-5-5-5-5-5-5-5-5-5-5-7-7-7-|
A|-5-5-5-5-5-5-5-5-5-5-5-5-5-7-7-7-|
E|-3-3-3-3-3-3-3-3-3-3-3-3-3-5-5-5-|

e|---------------------------------|
B|---------------------------------|
G|-7-7-7-7-7-7-7-7-7-7-7-7-7-7-7-7-|
D|-7-7-7-7-7-7-7-7-7-7-7-7-7-7-7-7-|
A|-5-5-5-5-5-5-5-5-5-5-5-5-5-5-5-5-|
E|---------------------------------|

Guitar Two
e|---------------------------------|
B|---------------------------------|
G|---------------------------------|
D|-5-5-5-5-5-5-5-5-5-5-5-5-5-7-7-7-|
A|-5-5-5-5-5-5-5-5-5-5-5-5-5-7-7-7-|
E|-3-3-3-3-3-3-3-3-3-3-3-3-3-5-5-5-|

e|---------------------------------|
B|---------------------------------|
G|---------------------------------|
D|-5-5-5-5-5-5-5-5-5-5-5-5-5-7-7-7-|
A|-5-5-5-5-5-5-5-5-5-5-5-5-5-7-7-7-|
E|-3-3-3-3-3-3-3-3-3-3-3-3-3-5-5-5-|

e|-9-9-9-5-5-5-------------------------|
B|-------------8-8-8-5-5-5-5-5-5-7-7-7-|
G|-------------------------------------|
D|-------------------------------------|Play this part twice.
A|-------------------------------------|
E|-------------------------------------|


Verse 2:
Both guitars
e|-----------------|
B|-----------------|
G|-4~--------------|
D|-4~--5~--2~--4~--|
A|-2~--5~--2~--4~--|
E|-----3~--0~--2~--|

Bridge 1 (Outro):
Guitar One
e|---------------------------------|
B|---------------------------------|
G|---------------------------------|
D|-5-5-5-4-4-4-5-5-5-4-4-4-5-------|
A|-5-5-5-4-4-4-5-5-5-4-4-4-5-------|Play this 4 times
E|-3-3-3-2-2-2-3-3-3-2-2-2-3-------|

Guitar Two
e|------------------------------------------------------|
B|-8-8-8-7-7-7-8-8-8-7-7-7-8--8-8-8-7-7-7-8-8-8-7-7-7-8-|
G|------------------------------------------------------|
D|------------------------------------------------------|
A|------------------------------------------------------|Play this 3 times
E|------------------------------------------------------|

e|----------------------------------------------------------|
B|-8-8-8-10-10-10-12-12-12-14-14-14-15--15-15-15-17-17-17V^-|
G|----------------------------------------------------------|
D|----------------------------------------------------------|
A|----------------------------------------------------------|Play this last.
E|----------------------------------------------------------|

Bridge 2:
Both guitars
e|----------------|
B|----------------|
G|--7~------------|
D|--7~------------|
A|--5~------------|
E|----------------|


Order of song:
Intro (Verse 1)
Chorus
Verse 1
Chorus
Verse 2
Bridge 1
Bridge 2
Chorus
Bridge 1 (Outro)

Lyrics:
Waking with a fire burnin' in my hands
Gonna take a while to understand
It's you
It's you
Seven days gone since I've seen the light
Covered in the snow from the TV white
It's you
It's you

And I don't want anything from you
I just want every bit of you to want me
I don't need anything to do
Just drive me into you and wreck me

Drunk like a soldier on an enemy line
Drawin' out heaven with an absinthe mind
It's you
It's you
Listen to the needle skippin' over the words
Making up lines I ain't ever heard
It's you
It's you

And I don't want anything from you
I just want every bit of you to want me
I don't need anything to do
Just drive me into you and wreck me

OK well, thats it.
Thanks so much,
Trevor and Matt
=]
Tap to rate this tab
# A B C D E F G H I J K L M N O P Q R S T U V W X Y Z