Song name
# A B C D E F G H I J K L M N O P Q R S T U V W X Y Z

1969 - Wednesday tab

----------------------------------------------------------------------------
			     Wednesday - 1969 CD - Maya
----------------------------------------------------------------------------
Tabbed by: Jeremy C.
Email: kool-aid-king@live.com

This is my first Tab EVAR!! SO, if u have any corrections, question, comments or praise, 
leave a comment at the bottom of the page or E-Mail me @ the adress provided above, 
=]

Tuning:EADGBe

Intro and Verses:(Lots of Delay and some overdrive)
e|-0000-0000-0000-0000----------------------------|
B|-0000-0000-0000-0000----------------------------|
G|-9999/8888/4444/3333----------------------------|
D|------------------------------------------------|
A|------------------------------------------------|
E|------------------------------------------------|

Chorus:(Clean)
e|------------------------------------------------|
B|-----9---9---10---9---9------7---7---7---7---7--|
G|---9---9---9----9---9------8---8---8---8---8----|
D|-7-----------------------9----------------------|
A|------------------------------------------------|
E|------------------------------------------------|

e|------------------------------11--11--12--11--11-|
B|-----9---9---10---9---9------9---9---9---9---9---|
G|---9---9---9----9---9------9---------------------|
D|-7-----------------------------------------------|
A|-------------------------------------------------|
E|-------------------------------------------------|

e|------------------------------------------------|
B|-----9---9---10---9---9------7---7---7---7---7--|
G|---9---9---9----9---9------8---8---8---8---8----|
D|-7-----------------------9----------------------|
A|------------------------------------------------|
E|------------------------------------------------|

e|-----------------------------11---11--12--11--11---|
B|-----9---9---12---10----9---9---9---9---9----9-----|
G|---9---9---9----9----9----9------------------------|
D|-7-------------------------------------------------|
A|---------------------------------------------------|
E|---------------------------------------------------|

Bridge Bass line thang:
E|5-5-5-5-2-2-2-2-9-9-9-9-9-9-9-9 <---times--2---

E|5-5-5-5-2-2-2-2-9-9-9-9-9-9-9-9-11-11-11-11-11-11-11-11-7-7-7-7-7-7-7-7

Guitar: 1 Bridge (Clean)
e|-----------------------------------------------------------|
B|--16-16-16--17-17-17--16-16-16--18-17-16-  <---play--------|
G|-----------------------------------------   <---this-------|
D|-----------------------------------------    <---two-------|
A|-----------------------------------------      <---times---|
E|-----------------------------------------------------------|

Guitar: 2 Bridge (overdrive and delay) arpegiate first 4 chords 3 times each listen to 
to get it right.
e|-11--------12-------11-------14-------12----11-------------|
B|----12--------12-------12-------12------12-----12----------|
G|-------13--------13-------13-------13-----13------13-------|
D|-----------------------------------------------------------|
A|-----------------------------------------------------------|
E|-----------------------------------------------------------|

Song Goes like this:
Intro
Verse
Chorus
Verse
Chorus
Bass interlude
Bridge
Chorus

| /  slide up
| \  slide down
| h  hammer-on
| p  pull-off
| ~  vibrato
| +  harmonic
| x  Mute note
===============================================================================
Tap to rate this tab
 
# A B C D E F G H I J K L M N O P Q R S T U V W X Y Z