Song name
# A B C D E F G H I J K L M N O P Q R S T U V W X Y Z

1969 - All Talk No Action tab

-------------------------------------------------------------------------------
			     All Talk No Action - 1969
-------------------------------------------------------------------------------
Tabbed by: Jeremy Cobb
Email: kool-aid-king@live.com
Feel free to E-mail or comment if u hve any corrections or comments.


Key - D
Tuning: Standard

I'm skipping the intro cuz its just a bunch of harmonics with a dotted 8th note 
delay and thats easy, lol.

Verses: repeat X4 in the verses
e|---------------------------------------------------------------------------|
B|---------------------------------------------------------------------------|
G|-2222222244444444----------------------------------------------------------|
D|-4444444444444444----------------------------------------------------------|
A|---------------------------------------------------------------------------|
E|---------------------------------------------------------------------------|

Chorus:"All Talk No Action.." P.M repeat twice
e|---------------------------------------------------------------------------|
B|-10x7-12x7-10x7-15-15-13-13-12-12-10-10------------------------------------|
G|---------------------------------------------------------------------------|
D|---------------------------------------------------------------------------|
A|---------------------------------------------------------------------------|
E|---------------------------------------------------------------------------|

After chorus, play twice
e|---------------------------------------------------------------------------|
B|-10/20-20x7-19-------------------------------------------------------------|
G|-------------- 14-16-17----------------------------------------------------|
D|---------------------------------------------------------------------------|
A|---------------------------------------------------------------------------|
E|---------------------------------------------------------------------------|

then play this x2
e|---------------------------------------------------------------------------|
B|-19x7-17-------------------------------------------------------------------|
G|---------14-16-17----------------------------------------------------------|
D|---------------------------------------------------------------------------|
A|---------------------------------------------------------------------------|
E|---------------------------------------------------------------------------|


Bridge
e|-----------10---12---10---12\----------------------------------------------|
B|---12--13------------------------------------------------------------------|
G|-9-----9---9-----9---9-----9-----------------------------------------------|
D|---------------------------------------------------------------------------|
A|---------------------------------------------------------------------------|
E|---------------------------------------------------------------------------|

"OH~!~ (OH~~!)" 
   I know its a walk down from Em, F#m, G, A then back to Em, F#m, G, F#m
I'll figure out the chord voicings later.
e|---------------------------------------------------------------------------|
B|---------------------------------------------------------------------------|
G|---------------------------------------------------------------------------|
D|---------------------------------------------------------------------------|
A|---------------------------------------------------------------------------|
E|---------------------------------------------------------------------------|

************************************

| /   slide up
| \   slide down
| h   hammer-on
| p   pull-off
| ~   vibrato
| +   harmonic
| x   Mute note
| b   Bend
| pb  Pre-bend
| br  Bend release
| pbr Pre-bend release
| brb Bend release bend

************************************
Tap to rate this tab
 
# A B C D E F G H I J K L M N O P Q R S T U V W X Y Z