Guitaretab - guitar tabs
Song name
# A B C D E F G H I J K L M N O P Q R S T U V W X Y Z

1974 Ad - Parelima tab



1974 A.D.
Parelima

Tab : SOLO.(guitar) standard regular 6 string.

----------------------------------------------------|--|
----------------------------------------------------|--|
----------------------------------------------------|--|
------------------------------9S11--9------------|-----|
---------7---9S11--9--7---------------11P9--7-|--------|
-7H9----------------------------------------------|----|

----------------------------------------------------------------------|
----------------------------------------------------------------------|
--7S9--8-9--9S11--9---------------------------------------------------|
---------------------------11P9--7---9S11--9--------------------------|
----------------------------------------------------11P9--7-----------|
----------------------------------------------------------------------|

--------------------------------------------------------------------------------|
--10S12--10-9-------------------------------------------------------------------|
-------------------9S11--9----------------------------8H9--11S13--9-------------|
------------------------------11P9--7--6H7--9S11--------------------------------|
--------------------------------------------------------------------------------|
--------------------------------------------------------------------------------|
[ Tab from: http://www.guitaretab.com/numeric/1974-ad/194765.html ]
--------------------------------------------------------------------------------|
--------------------------------------------------------------------------------|
--9--9-11-11S13--11--------------6-8-8S9--8--8H9--9S11--------------------------|
--------------------------9H11P9------------------------------------------------|
--------------------------------------------------------------------------------|
--------------------------------------------------------------------------------|

Tab finished.
I donít know if I names the chords ryt. Bare w/me.
Chords for song: |E, F#msus4| Asus2, E|
Chords for chorus: |C#m|B|C#m|B|C#m|B|A|B| Last two chords only one beat.
Note: only one chord between | | play full.
2 chords between | chord, chord | play each chord half.


Song in next page.


E F#msus4 Asus2 E
Parelima lukai rakha na
E F#msus4 Asus2 E
Aangalo ma bandhi rakha


E F#msus4 Asus2 E
Jaana na deau rokaa na rokaa
E F#msus4 B A
Udna na deau aakash ko chari
E F#msus4
jastai malai


C#m B C#m
(chorus) Bandhera rakha timrai mutuma, yo taa timrai
B
dhadhkana ho
C#m B A* B
Sanchera rakha timrai aankhama, yo ta timrai sahara ho


(same as the first verse)

Maana bhitra sanchi rakha na

Aankha bhitra aaljhai raakha

Ramna deau na timrai aankha ma

Baas basna deau timrai hridaya ko dhukdhuki ma,

Solo

Chorus repeats.

Notes: * strum only once
Chord formations:

E -0-- F#msus4 ---0-- Asus2 --0-------- C#m ---4------------|
---0-- ---0-- --0-------- ----5-----------------------------|
---1-- ---2-- --2-------- ---6------------------------------|
---2-- ---4-- --2-------- ---6------------------------------|
---2-- --x--- --x-------- ---4------------------------------|
---0-- --x-- --x-------- -----------------------------------|
Related for Parelima tab
Parelima chords by 1974 Ad