Guitaretab - guitar tabs
Song name
# A B C D E F G H I J K L M N O P Q R S T U V W X Y Z

1974 Ad - Samjhi Baschhu tab

INTRO
--11h12----------------|---------------------------|----------------------------------|
--------12--10-9~~~~~~-|--9-10-12-9----------------|-------------9-10--12-10-9-10-----|
-----------------------|-------------9-8-----------|------8-9-11------------------9-8-|
-----------------------|------------------11-9~~~~~|-9-11-----------------------------|
-----------------------|---------------------------|----------------------------------|
-----------------------|---------------------------|----------------------------------|


-----------------------|-------------|------------------------------------14----------|
-----------------------|-------------|---------------------10-11/12-11-12-------------|
--8-9-11--------------9|-----------12|---------11--7/8-7-8----------------------------|
---------10/11-10-11---|-9/10-9-10---|-8/9-8-9----------------------------------------|
-----------------------|-------------|------------------------------------------------|
-----------------------|-------------|------------------------------------------------|
[ Tab from: http://www.guitaretab.com/numeric/1974-ad/74363.html ]
SOLO
----------------------------------------------|-0-4p0-------------|------------------------|
----------------------------4---5--7--/-9~~~~-|-------5-----------|------------------------|
---------------------4---5--------------------|---------4--------4|----------4/6\4---------|
---------------4-6-7--------------------------|-----------7---7---|-7--6--4---------7-6-4--|
---------4-6-7--------------------------------|-------------8-----|--------7---------------|
---4-5-7--------------------------------------|-------------------|------------------------|


----------------------------|---------------------------------------|
----------------------------|----------------457/9/10--/10----------|
------------4---------------|-------------45---------------9--------|
---------6-----6--4---------|---------467--------------------11-----|
------6--------------6p4h6--|-----467---------------------------12--|
---4------------------------|--457----------------------------------|


-------------------12-12---------------------11----------5--------5-5/7--|
---/13----------13---------/12------------12------/7---7---7---7---------|
-------12----12----------------11------11------------8-------8-----------|
----------14-----------------------12------------------------------------|
-------------------------------------------------------------------------|
-------------------------------------------------------------------------|
Related for Samjhi Baschhu tab
×
Samjhi Baschhu