Song name
# A B C D E F G H I J K L M N O P Q R S T U V W X Y Z

1990s - Youre Supposed To Be My Friend tab

Help us improve GuitareTab! Take a short survey!
Band: 1990s
Song: You're Supposed To Be My Friend

http://www.1990s.tv/

The chords shown can be played on a second guitar behind the main melody
(In the song these are actually the notes the bass plays)



Main Riff
---------
    D                            G
e|--------------------------------------------------------|
B|--------------------------------------------------------|
G|-------------------------------10-9-8-7---7-8-9-10------|
D|--7-8-9-10---10-9-8-7-----------------------------------|
A|--------------------------------------------------------|
E|--------------------------------------------------------|



Fill
----
    D               G
e|------------------------------------|
B|------------------------------------|
G|--7777777777777777------------------|
D|--77777777777777775555555555555555--|
A|--55555555555555555555555555555555--|
E|------------------3333333333333333--|



Second Riff
-----------
    D                                  G        D
e|-----------------------------------|
B|-----------------------------------|
G|-----------------------------------|
D|--7---7-5-7---7-5-7---7-5-7/9-7-5--|
A|-----------------------------------| repeat x2
E|-----------------------------------|

then
    A
e|-----------------------------------|
B|-----------------------------------|
G|-----------------------------------|
D|--7---7-5-7---7-5-7-5-7-5-7/9-7-5--|
A|-----------------------------------|
E|-----------------------------------|



Bassline
--------
    D                        G
G|------7-----7---7---------------------------------|
D|-------------------------------5-----5---5--------|
A|--5-5---5-x---5---5-------------------------------|
E|---------------------------3-3---3-x---3---3------|



Main Riff Extra
---------------
    D                            G
e|------------------------------------------------------------------------|
B|------------------------------------------------------------------------|
G|-------------------------------10-9-8-7---7-8-9-10----10-10----10-10~---|
D|--7-8-9-10---10-9-8-7---------------------------------------------------|
A|------------------------------------------------------------------------|
E|------------------------------------------------------------------------|



Solo
----

e|----------------------------------------------------------------------------------|
B|----------------------------------------------------------------------------------|
G|------------------------------------------------14--------------------------------|
D|--7--7-7/9--9-9/10--10-10/11--11-11/12-12-12-12----12-14-15b16r15-14-12-12-14-15--|
A|----------------------------------------------------------------------------------|
E|----------------------------------------------------------------------------------|

E|------------------------------------------------|
B|--------------------------10-12-12-10-12-10-12--|
G|-----------12-----12--12--12-12-12-12-12-12-12--|
D|--14/12----12-----12--12------------------------|
A|--12/10-10-----10-------------------------------|
E|------------------------------------------------|

e|------10--12-10-12/13b15r13-13-13h14-15-13h14-15--15b17-17r15-17-17b19-19-19--|
B|------------------------------------------------------------------------------|
G|--11--------------------------------------------------------------------------|
D|------------------------------------------------------------------------------|
A|------------------------------------------------------------------------------|
E|------------------------------------------------------------------------------|

e|--20h22-22--22--20--22--20-22--20-20---(x3)---20--10--10/12--|
B|------------------------------------------------------11/13--|
G|------------------------------------------------------10/12--|
D|-------------------------------------------------------------|
A|-------------------------------------------------------------|
E|-------------------------------------------------------------|

                             Tremolo
             /\/\/\/\/\/\/\/\/\/\/\/\/\/\/\/\/\/\/\/\
e|------------------------------------------------------|
B|------------------------------------------------------|
G|------------------------------------------------------|
D|---17--17--17-17-17-17-17b18-17b18-/-/-/-/-/-/-/-/-5--|
A|------------------------------------------------------|
E|------------------------------------------------------|
          slowly slide from 17 to 5 while picking rapidly


e|--------10-10----------10-10--------10-10-------10--------|
B|--------------10-10-10--------------------10-10----10-----|
G|--11h12-----------------------11h12-------------------12--|
D|----------------------------------------------------------|
A|----------------------------------------------------------|
E|----------------------------------------------------------|

e|--8h10-10-10b12-10b12-12b13-13h15-15b17-17/20--|
B|-----------------------------------------------|
G|-----------------------------------------------|
D|-----------------------------------------------|
A|-----------------------------------------------|
E|-----------------------------------------------|

                                /\/\/\/\/\/\/\/\/\/\/\/\/\/\
e|------------------------------10----15-/-/-3--2-3----------------------|
B|---------------------------------------------------------3--3b5-3b5-3--|
G|-----12-11-12-11-12-12-12-12-------------------------------------------|
D|--12-----------------------------------------------4--5----------------|
A|-----------------------------------------------------------------------|
E|-----------------------------------------------------------------------|



Outro
-----
    D                            G
e|--------------------------------------------------------|
B|--------------------------------------------------------|
G|--------------------------------------------------------|
D|--7-8-9-10---10-9-8-7----------5------------------------|
A|-------------------------------5----let ring------------|
E|-------------------------------3------------------------|




Order
- - -
Main Riff x5
Fill x2
Bassline x1
Second Riff x1
Bassline x1
Fill x1
Main Riff x3 (2nd time = Extra)
Second Riff x1
Solo x1
Outro x1



|b = bend
|r = release bend
|h = hammer on
|/ = slide
|/\/\ = tremolo picking



Please forgive the quality of the solo (especially the bending bits)
It's my first submitted solo
Otherwise should be correct. Enjoy!

Tabbed by NintEndO
Related for Youre Supposed To Be My Friend tab