Song name
# A B C D E F G H I J K L M N O P Q R S T U V W X Y Z

2 Minutos - Ya No Sos Igual tab

artista:2minutos
cancion:ya no sos igual
interprete:juan david
e-mail:juandamio@hotmail.com


cuando entre el bajo aga esto

1-----------------------------------------------
2----1---1-8---8-10---10-6----------------------
3-----------------------------------------------
4-----------------------------------------------
5-----------------------------------------------
6-----------------------------------------------
  
despues rasgueo

despues aga esto con palm muting

1-------------------------------------------------------------------
2-------------------------------------------------------------------
3-------------------------------------------------------------------
4----10101010101010---555555555---777777777---333333333-------------
5----88888888888888---333333333---555555555---111111111-------------
6-------------------------------------------------------------------
     ....................pm............................

luego lo mismo pero deje sonar lo que esta seņalado
1-------------------------------------------------------------------
2-------------------------------------------------------------------
3-------------------------------------------------------------------
4----10101010101010---555555555---(7---3)--55555------------------
5----88888888888888---333333333---(5---1)--33333------------------
6-------------------------------------------------------------------
     ..........pm..............


luego empieza a cantar

1-------------------------------------------------------------------
2-------------------------------------------------------------------
3-------------------------------------------------------------------
4----10101010101010---555555555---777777777---333333333-------------
5----88888888888888---333333333---555555555---111111111-------------
6-------------------------------------------------------------------

en el (solucion solucion) declice

1--------------------------------------------------------
2--------------------------------------------------------
3-----101010101010101/-3--111111-3333333-----------------
4-----888888888888888/-5--333333-5555555-----------------
5--------------------------------------------------------
6--------------------------------------------------------


despues del coro hacen un punteo asi

1--------------------------------------------------------
2----111111111-88888888-101010101010-666666666666666666--
3--------------------------------------------------------
4--------------------------------------------------------
5--------------------------------------------------------
6--------------------------------------------------------


y tambien hay un pedaso que el guitarrista ase esto

1-------------------------------------------------------------------
2-------------------------------------------------------------------
3-------------------------------------------------------------------
4----(10)---(5)---(7)---(3)-----------------------------------------
5----(8)----(3)---(5)---(1)-----------------------------------------
6-------------------------------------------------------------------

deje sonar lo seņalado t luego rasgueo y coro mas rapido
eso es 100% real 
algunos comentarios escriban al e-mail
Tap to rate this tab
 
# A B C D E F G H I J K L M N O P Q R S T U V W X Y Z