2 Skinnee Js - Youre A Champion tab

after more than a decade there are still no correct tabs...
im not saying these are right but they dont sound bad.

Artist: 2 Skinnee J's
Song:   You're a Champion
Tabbed: Skimpydime (Jay Morgan)


Bass intro  
G--------------|
D--------------|
A-6-4/3-4/6-4/3|  Repeat
E--------------|

      Guitar verse
							end with
e--------------------------                  ----------------------|
B--------------------------                  ----------------------|
G--------------------------                  ----------------------|
D---------4-6--------------   Repeat a bunch ----------------------|
A-/6~~~/6----/6~~~~-4p3h4--		     -4p3h4-/2-------------|
E--------------------------                  ----------------------|



  Pre chorus
e-----------------11~~~~~                    ----------------------|
B------------4~~~~-------                    ----------------------|
G------------------------                    ----------------------|
D-----4-6----------------    Repeat	     ----------------------|
A--/6-----6~~------------                    -4p3h3-/2-------------|
E------------------------                    ----------------------|
 
e------------------------|
B------------------------|
G------------------------|
D--9--7/6--7/9--7/6------| Repeat
A--9--7/6--7/9--7/6------|
E--7--5/4--5/7--5/4------|


Enjoy
Tap to rate this tab
 
# A B C D E F G H I J K L M N O P Q R S T U V W X Y Z