Song name
# A B C D E F G H I J K L M N O P Q R S T U V W X Y Z

2 Skinnee Js - Grown Up tab

e|-----------------------------
B|-----------------------------
G|---------3-3------------5-5--
D|--3-3-5--3-3-3---3-3-5--5-5-3
A|--3-3-5--1-1-3---3-3-5--3-3-3
E|--1-1-3------1---1-1-3------1

e|-----------------------------
B|-----------------------------
G|---------3-3------------5-5--
D|--3-3-5--3-3-3---3-3-5--5-5-3
A|--3-3-5--1-1-3---3-3-5--3-3-3
E|--1-1-3------1---1-1-3------1

e|-----------------------------
B|-----------------------------
G|---------3-3------------5-5--
D|--3-3-5--3-3-3---3-3-5--5-5-3
A|--3-3-5--1-1-3---3-3-5--3-3-3
E|--1-1-3------1---1-1-3------1
Tap to rate this tab
# A B C D E F G H I J K L M N O P Q R S T U V W X Y Z