Song name
# A B C D E F G H I J K L M N O P Q R S T U V W X Y Z

2 Unlimited - No Limit tab

Lead Guitar (Standard):

Main Riff
e--------------------------------------------------|
B--------------------------------------------------|
G------------6------------6------------6-----------|
D-8--8--8-6-8--8--8--8-6-8--8--8--8-6-8----------6-|  (x4)
A----------------------------------------6--6-9-6--|
E--------------------------------------------------|

e---------------------------------------------------|
B---------------------------------------------------|
G--------6--6----------6--6----------6----8-8-10-10-|
D-8--8----------8--8----------8--8------8-----------| (x2)
A---------------------------------------------------|
E---------------------------------------------------|
Tap to rate this tab
# A B C D E F G H I J K L M N O P Q R S T U V W X Y Z