Song name
# A B C D E F G H I J K L M N O P Q R S T U V W X Y Z

2 Unlimited - No Limit tab

Keyboard arranged for guitar :)


Intro:
|--------------------------------|
|--------------------------------|
|--------------------------------|
|--------------------------------|
|-------------4------------4-----|
|--6-6--6-4-6---6-6--6-4-6---6-6-|
x2

|--------------------------------|
|--------------------------------|
|--------------------------------|
|--------------------------------|
|--------------------------------|
|-1-1-1-4-1-4/5------------------|

X4

Main Riff:
|--------------------------------|
|--------------------------------|
|------6-6-----6---8--8-10-10----|
|-8-8------8-8---8---------------|
|--------------------------------|
|--------------------------------|

Bridge:
A#
G#
F#m

Repeat everything loads of times for 5 and a half minurd
Tap to rate this tab
# A B C D E F G H I J K L M N O P Q R S T U V W X Y Z