Song name
# A B C D E F G H I J K L M N O P Q R S T U V W X Y Z

2 Years Apart - Kaibigan Lang tab

============================================================================
Song: Kaibigan Lang
Artist: 2 Years Apart
Tabbed by: Rey Ramos (sunuganngkilay)
Date: July 22,2013
Tuning: Eb-Ab-Db-Gb-Bb-eb (tune down guitar 1 step lower)
============================================================================
Basic Guitar Tab Symbols:
h - hammer
s - slide
p - pull-off
x - string mute or dead note
() - let ring
V -downstroke strumming pattern
^ - upstroke strumming pattern
for other guitar tab symbols please check 
http://www.gametabs.net/lessons/the-ultimate-guitar-tab-symbols-guide

for questions,suggestions,correction please leave comments below or send a message 
in my email sunuganngkilay@yahoo.com

Thanks for checking my tabs and i hope you learn something on it.
============================================================================

INTRO:

Guitar 1: 

e|---------------------------------------------------------------------|
B|---------------------------------------------------------------------|
G|---------------0-------------------0-----0------2-------0--0---------|
D|-----2-----2-----------4---4h5-4-------0------0-----0h2------2-0-----|
A|-3-3---3-3---3---3s5-5---5-------5-----------------------------------|
E|-------------------------------------3------2-----0------------------|   
            
Guitar 2: (rhythm)
                                         V     ^  V   ^  ^  V  ^ ^ V ^
e|---------------------------------------3-----3--3---3--3--3--3-3-3-3-|
B|---------------------------------------3-----3--3---3--3--3--3-3-3-3-|
G|---------------------------------------0-----2--2---0--0--0--0-0-0-0-|
D|---------------------------------------0-----0--0---2--2--2--2-2-2-2-|
A|---------------------------------------x-----x--x---2--2--2--2-2-2-2-|
E|-------------------------------------3-3--2--2--2---0--0--0--0-0-0-0-|

Guitar 3 (lead guitar)
                                     V   ^ V ^ 
e|--------------------------------------------------------------(12)-----|
B|-----------------------------------8---8-8-8-------8---12h13-----------|
G|-----------------------------------0---0-0-0--7h9----------------------|
D|-----------------------------------9---0-0-0---------------------------|
A|--------------------------------10---9-----7---------------------------|
E|-----------------------------------------------------------------------|

STANZA:

Guitar 1:

e|---------------------------------------------------------------------|
B|---------------------------------------------------------------------|
G|---------------0-------------------0-----0------2-------0--0---------|(5x)
D|-----2-----2-----------4---4h5-4-------0------0-----0h2------2-0-----|
A|-3-3---3-3---3---3s5-5---5-------5-----------------------------------|
E|-------------------------------------3------2-----0------------------|
             kahit    na           bilang   kaibigan lang....
e|------------3-----------------------2-------------------------|
B|------------3-----------------------3-------------------------|
G|------------0-----------------------2-------------------------|
D|------------2-----------------------0-------------------------|
A|------------3-------------------------------------------------|
E|--------------------------------------------------------------|

Guitar 2: Strumming only

C--D--G-D/F#-Em-- (5x)
Chold--Dhold--
  
    C      D     G    D/F#  Em   Chold Dhold 
e|--0---|--0--|--3--|--3--|--3--|--0--|--2--|
B|--1---|--3--|--3--|--3--|--3--|--1--|--3--|
G|--0---|--0--|--0--|--2--|--0--|--0--|--2--|
D|--2---|--4--|--0--|--0--|--2--|--2--|--0--|
A|--3---|--5--|--x--|--x--|--2--|--3--|-----|
E|--x---|--x--|--3--|--2--|--0--|-----|-----|

Guitar 3 (lead guitar)             

2nd line part:
                             V ^ V ^     V   ^ V ^ ^ V ^ ^ V
e|---------------------------x-x-x-x-------------------------------------|
B|---------------------------x-x-x-x-----8---8-8-8-8-8-8-8-8-------------|
G|---------------------------x-x-x-x-----0---0-0-0-0-0-7-7-7-------------|
D|---------------------------x-x-x-x-----9---0-0-0-0-0-0-0-0-------------|
A|---------------------------x-x-x-x--10---9-----7-7-7-7-7-7-------------|
E|---------------------------x-x-x-x-------------------------------------|

4th line part:
                                     V   ^ V ^ 
e|-------------------------------------------------------------------|
B|-----------------------------------8---8-8-8------8---8--7-(5)-----|
G|-----------------------------------0---0-0-0--5s7---7--------------|
D|-----------------------------------9---0-0-0-----------------------|
A|--------------------------------10---9-----7-----------------------|
E|-------------------------------------------------------------------|

INTERLUDE: G--D--C--D--

Guitar 1 strumming only

    G      D     C    
e|--3---|--2--|--0--|
B|--3---|--3--|--1--|
G|--0---|--2--|--0--|
D|--0---|--0--|--2--|
A|--2---|--x--|--3--|
E|--3---|--x--|--x--|

Guitar 2 (plucking)

e|-------3-----3---------3------3----------3-----3---------3-----2----|
B|-----3---3-----3-----3---3------3------3---3-----3-----3---3-----3--|
G|---0-------0-------2-------2---------0-------3-------2-------2------|
D|-----------------0---------------------------------0----------------|
A|----------------------------------3---------------------------------|
E|-3------------------------------------------------------------------|

Guitar 3: (lead guitar)

e|-----7--7-8-8s10-------7-7S8------------------------------------------|
B|-7s8-------------10-10-------8------8-10--10s12--10-------------------|
G|--------------------------------7h9-----------------------------------|
D|----------------------------------------------------------------------|
A|----------------------------------------------------------------------|
E|----------------------------------------------------------------------|

Repeat STANZA:

just do guitar 1 and guitar 2 pattern

Guitar 3:

2nd line part
                             V ^ V ^     V   ^ V ^ ^ V ^ ^ V
e|---------------------------x-x-x-x-------------------------------------|
B|---------------------------x-x-x-x-----8---8-8-8-8-8-8-8-8-------------|
G|---------------------------x-x-x-x-----0---0-0-0-0-0-7-7-7-------------|
D|---------------------------x-x-x-x-----9---0-0-0-0-0-0-0-0-------------|
A|---------------------------x-x-x-x--10---9-----7-7-7-7-7-7-------------|
E|---------------------------x-x-x-x-------------------------------------|

3rd line part:
                kahit  na   nahihirapan    na ...
e|------------------------------------------------12----------------|
B|---------------------------------------------8--------------------|
G|------------------------------------------9-----------------------|
D|------------------------------------------------------------------|
A|------------------------------------------------------------------|
E|------------------------------------------------------------------|

4th line part:
                                     V   ^ V ^ 
e|-------------------------------------------------------------------|
B|-----------------------------------8---8-8-8------7h8-7h8-7--------|
G|-----------------------------------0---0-0-0--7h9-----------9-(7)--|
D|-----------------------------------9---0-0-0-----------------------|
A|--------------------------------10---9-----7-----------------------|
E|-------------------------------------------------------------------|

Repeat interlude:

CHORUS: G--D--C--D--(2x)

guitar 1 and 2 strumming pattern

ADLIB: G--D--C--D--(2x)

guitar 1 and 2 strumming pattern

Guitar 3 (guitar solo)

e|-----7--7-8-8s10--------7-7S8-------------------------------------------|
B|-7s8-------------10--10-------8------8-10--10s12--10--------------------|
G|---------------------------------7h9------------------------------------|
D|------------------------------------------------------------------------|
A|------------------------------------------------------------------------|
E|------------------------------------------------------------------------|


e|-----7--7-8-8s10-10--10-12-12s14-12--12--12s14-14-15-14-12-12s14--------|
B|-7s8--------------------------------------------------------------------|
G|------------------------------------------------------------------------|
D|------------------------------------------------------------------------|
A|------------------------------------------------------------------------|
E|------------------------------------------------------------------------|

Repeat Stanza pattern:

Guitar 3 pattern:

end of 2nd line part

e|------------------------------------------------12----------------|
B|---------------------------------------------8--------------------|
G|------------------------------------------9-----------------------|
D|------------------------------------------------------------------|
A|------------------------------------------------------------------|
E|------------------------------------------------------------------|

4th line part:
                                     V   ^ V ^ 
e|-------------------------------------------------7-------|
B|-----------------------------------8---8-8-8---8---8-----|
G|-----------------------------------0---0-0-0-0-----------|
D|-----------------------------------9---0-0-0-------------|
A|--------------------------------10---9-----7-------------|
E|---------------------------------------------------------|

Repeat Interlude:

Repeat Chorus:


OUTRO : G--D--C--D-- (2x)
        Ghold

all guitars strumming pattern but guitar 3 uses electric guitar with effects

==================================END=======================================
Tap to rate this tab
# A B C D E F G H I J K L M N O P Q R S T U V W X Y Z