Song name
# A B C D E F G H I J K L M N O P Q R S T U V W X Y Z

24-7 Spyz - Love And Peace tab

Love And Peace by 24-7 Spyz

Tabbed by SuperBeef (SuperBeefTabs@gmail.com)

This tab is my interpretation of others work, and is not for commercial use.  

Dropped C Tuning CGCFAd

No one seems to tab any Spyz songs so thought I would have a go, awesome band.

Heavy Distortion throughout, especially the pre-chorus.

CHORDS


Intro Riff

d-|----------------|
A-|-----4h5p4---4--|
F-|-4-6-------6----|
C-|----------------|
G-|----------------|
C-|----------------|


Verse 

'Think I've been to'

d-|---------------------------|
A-|---------------------------|
F-|---------------------------|
C-|---------------------------|
G-|-9-9-9-9-7-7-7-7--2--4--5--|
C-|-9-9-9-9-7-7-7-7--2--4--5--|

'Can't tell'

d-|---------------------------|
A-|---------------------------|
F-|---------------------------|
C-|---------------------------|
G-|-9-9-9-9-7-7-7-7--2-7-6-5--|
C-|-9-9-9-9-7-7-7-7--2-7-6-5--|

'All smoke'

d-|----------------------------|
A-|----------------------------|
F-|----------------------------|
C-|----------------------------|
G-|-9-9-9-9-7-7-7-7--2-3-4--5--|
C-|-9-9-9-9-7-7-7-7--2-3-4--5--|


'So I'

d-|----------------|
A-|----------------|
F-|----------------|
C-|-2----1----0----|
G-|-2----1----0----|
C-|-2----1----0----|

Chorus

'Love and Peace'

d-|----------------|
A-|----------------|
F-|-4-6-4-6--4-8-7-|
C-|-4-6-4-6--4-8-7-|
G-|-2-4-2-4--2-6-5-|
C-|----------------|

Not entirely sure about chorus, definitely these notes but it sounds like there is 
something higher in the mix.

A lot of the rest of the song is based on the pre chorus low D C# C riff.

************************************

| /   slide up
| \   slide down
| h   hammer-on
| p   pull-off
| ~   vibrato
| +   harmonic
| x   Mute note
| b   Bend
| pb  Pre-bend
| br  Bend release
| pbr Pre-bend release
| brb Bend release bend

************************************
Tap to rate this tab
# A B C D E F G H I J K L M N O P Q R S T U V W X Y Z