Song name
# A B C D E F G H I J K L M N O P Q R S T U V W X Y Z

270 Bis - Barricate tab

 Artista: 270 Bis
 Canzone: Barricate

 INTRO

        Ripetere 10 volte.
 E-----|---------------------------------------------------------|
 B-----|---------------------------------------------------------|
 G-----|---------------------------------------------------------|
 D-2---|------2-------0------------0-------0---------------------|
 A-----|----2---2---2---2--------4---4---2---2-------------------|
 E-----|--0-------3-------3/5--5-------3-------3bd4--------------|


 Durante tutta la canzone le note sono le seguenti:

 E-----------------------------------------------------------|
 B-----------------------------------------------------------|
 G------------------7-7-7----5-5-5----5-5-5------------------|
 D--2-2----5-5-5----7-7-7----5-5-5----5-5-5------------------|
 A--2-2----5-5-5----5-5-5----3-3-3----3-3-3------------------|
 E--0-0----3-3-3---------------------------------------------|


 Durante la parte "fuochi nelle strade..." il pezzo solista dovrebbe
 essere questo:

 E---------------------------------------------------------------------|
 B-----7-8-7-8-7-7-8-10-8----------------------------------------------|
 G---------------------------------------------------------------------|
 D---------------------------------------------------------------------|
 A---------------------------------------------------------------------|
 E---------------------------------------------------------------------|

 Mentre durante il pezzo "e ci sei tu...":

 E---------------------------------------------------------------------|
 B-----10-8-7-8--------------------------------------------------------|
 G---------------------------------------------------------------------|
 D---------------------------------------------------------------------|
 A---------------------------------------------------------------------|
 E---------------------------------------------------------------------|


 Se avete commenti o correzioni scrivetemi a Skull10@hotmail.it
Tap to rate this tab
# A B C D E F G H I J K L M N O P Q R S T U V W X Y Z