Song name
# A B C D E F G H I J K L M N O P Q R S T U V W X Y Z

28 Days - Take Me Away tab

I redid this intor because no one seems to have it correct. Ali was close.

e------------0-----------0---------------------------------|
b------3-----------3-----------0---------------------------|
g---2-----2-----2-----2-----2------------------------------|
d----------------------------------------------------------|
a----------------------------------------------------------|
E----------------------------------------------------------|

------------0-----------0-----------------------------------|
b------3-----------3-----------0----------------------------|
g---0-----0-----0-----0-----0-------------------------------|
d-----------------------------------------------------------|
a-----------------------------------------------------------|
E-----------------------------------------------------------|

X 2

Tabbed by Michal
Tap to rate this tab
 
# A B C D E F G H I J K L M N O P Q R S T U V W X Y Z