Guitaretab - guitar tabs
Song name
# A B C D E F G H I J K L M N O P Q R S T U V W X Y Z

28 Days - Rise Above tab

          Artist: 28 DAYS
          Song: RISE ABOVE
          Album: 28 DAYS


          tabbed by Chad Mann

          INTRO- play octaves
          E|------------------------------
          B|------------------------------
          G|----9-------------------------
          D|--------------9--10--12--12---
          A|----7-------------------------
          E|--------------7---8--10---8---

[ Tab from: http://www.guitaretab.com/numeric/28-days/129909.html ]
          VERSE- figure out the timing yourself
              E      C       G      F#  D       E      C   B   C  D   C
          E|--------------------------------|-------------------------------
          B|--------------------------------|-------------------------------
          G|--9-------------12-----10-------|---9---------------------------
          D|--9-----10------12-----10--12---|---9------10--9--10--12--10----
          A|--7-----10------10------9--12---|---7------10--9--10--12--10----
          E|---------8-----------------10---|-----------8--7-- 8--10---8----


          CHORUS
               G       A       C       D
          E|---------------------------------
          B|---------------------------------
          G|---------------------------------
          D|---5-------7------10-------12----
          A|---5-------7------10-------12----
          E|---3-------5-------8-------10----


          END
               Em      G       A     B  C D  D  D
          E|------------------------------------------
          B|------------------------------------------
          G|------------------------------------------
          D|---2-------5-------7-----9-10-12-12-12----
          A|---2-------5-------7-----9-10-12-12-12----
          E|---0-------3-------5-----7--8-10-10-10----


          INTRO
          VERSE X2
          CHORUS X 2
          INTRO
          VERSE
          CHORUS X4
Related for Rise Above tab
Rise Above chords by 28 Days