Song name
# A B C D E F G H I J K L M N O P Q R S T U V W X Y Z

2cents - A Song For Darrell Abbott tab

|-----------------------------------------------------|
|-----------------------------------------------------|
|-------------0---------------------------------------|
|---------2-----2--4~-5-4-0-4~-5-4-0------------------|
|-7/2---2--2-----2------------------------------------|
|-----0-----------------------------------------------|

|-----------------------------------------------------|
|-----------------------------------------------------|
|-----------0-----------------------------------------|
|------2------2---0-2-4-2-0-2-4-2---------------------|
|----2---2-----2--------------------------------------|
|--0--------------------------------------------------|

|-----------------------------------------------------|
|-----------------------------------------------------|
|----------0------------------------------------------|
|------2-----2--4~-5-4-0-4~-5-4-0---------------------|
|----2--2-----2---------------------------------------|
|--0--------------------------------------------------|


|-----------------------------------------------------|
|-----------------------------------------------------|
|-----------0-----------------------------------------|
|------2------2-----0-2h4p2--0--2--5/7--5/4-----------|
|----2---2------2-------------------------------------|
|--0--------------------------------------------------|

talked to the guitarist and he said this is pretty much right on.
and i cent believe this is the only 2cents tab on here.

website  :  www.2centsmusic.com
Tap to rate this tab
# A B C D E F G H I J K L M N O P Q R S T U V W X Y Z