Song name
# A B C D E F G H I J K L M N O P Q R S T U V W X Y Z

2cents - A Song For Darrel Abbott tab

this is a bad ass song

band:2 cents
song:a song for darrel abbott
album:lost at sea

this is most of it..I'm tryin the lead...its pretty accurate for learning it by ear..but 
dead on...(just to let you know)

harmonic intro

E|---------12*----------------12*-----12*--|
B|-----7*--------12*------7*----------12*--|
G|--5*-------7*-------5*---------7*---12*--|
D|-----------------------------------------|
A|-----------------------------------------|
E|-----------------------------------------|

intro

E|--------------------------------------------------------------------|
B|--------------------------------------------------------------------|
G|-------------0------------------------------------------------------|
D|---------2-----2--4~-5-4-0-4~-5-4-0---------------------------------|
A|-7/2---2--2-----2---------------------------------------------------|
E|-----0--------------------------------------------------------------|

E|--------------------------------------------------------------------|
B|--------------------------------------------------------------------|
G|-----------0--------------------------------------------------------|
D|------2------2---0-2-4-2-0-2-4-2------------------------------------|
A|----2---2-----2-----------------------------------------------------|
E|--0-----------------------------------------------------------------|

E|--------------------------------------------------------------------|
B|--------------------------------------------------------------------|
G|----------0---------------------------------------------------------|
D|------2-----2--4~-5-4-0-4~-5-4-0------------------------------------|
A|----2--2-----2------------------------------------------------------|
E|--0-----------------------------------------------------------------|


E|--------------------------------------------------------------------|
B|--------------------------------------------------------------------|
G|-----------0--------------------------------------------------------|
D|------2------2-----0-2h4p2--0--2--5/7--5/4--------------------------|
A|----2---2------2----------------------------------------------------|
E|--0-----------------------------------------------------------------|

solo intro

E|-----------------------------------10br-8-7-----7--10----------------|
B|-----------------------8/11br-10-8----------10b----10b--10b--8~---8--|
G|-----------7--7/9--7-9------------------------------------------7---9|
D|---------5-----------------------------------------------------------|
A|--2/7--7-------------------------------------------------------------|
E|---------------------------------------------------------------------|


E|--------------------------------------------------------------------|
B|-----------------------7h8/10---------------------------------------|
G|-----------7h9-----7h9--------9~------------------------------------|
D|-------7h9-----7h9--------------------------------------------------|
A|-7h8h9--------------------------------------------------------------|
E|--------------------------------------------------------------------|

then its the intro all the way,then play this

E|--------------------------------------------------------------------|
B|--------------------------------------------------------------------|
G|-5555555555555555---------------------------------------------------|
D|-5555555555555555--2-5-4-5-x-5-4-2--2-5-4-5-x-5-4-5-----------------|
A|-3333333333333333--2-5-4-5-x-5-4-2--2-5-4-5-x-5-4-5-----------------|
E|-------------------0-3-2-3-x-3-2-0--0-3-2-3-x-3-2-3-----------------|


E|---------------------0----------------------------------------------------|
B|---------------------0----------------------------------------------------|
G|-55555555555555------------5555555555555----------------------------------|
D|-55555555555555---2----5---5555555555555--2-5-4-5-x-5-4-2--2-5-4-5-x-5-4-5|
A|-33333333333333---2----5---3333333333333--2-5-4-5-x-5-4-2--2-5-4-5-x-5-4-5|
E|------------------0----3------------------0-3-2-3-x-3-2-0--0-3-2-3-x-3-2-3|

E|-------------------------------------------------------------|
B|-------------------------------------------------------------|
G|-55555555555555----------------------------------------------|
D|-55555555555555--4----2--------------------------------------|
A|-33333333333333--4----2--------------------------------------|
E|-----------------2----0--------------------------------------|

                   ^....^ hold both them

then the the break down or whatever is

E|---------------------------------------------------------------|
B|---------------------------------------------------------------|
G|---------------------------------------------------------------|
D|-2-222-2-222-2---2-222-2-222-2--2-222-2-222-2---2-222-2-222-2--|
A|-2-222-2-222-2---2-222-2-222-2--2-222-2-222-2---2-222-2-222-2--|
E|-0-000-0-000-0---0-000-0-000-0--0-000-0-000-0---0-000-0-000-0--|


well I hope you like it...its not fully done...I just got tired of sitting here for an 
tabbing this out by ear lol...so comment this and let me know if its good and what should change.

2 CENTS ROCK!!!!!!!!!!!
Tap to rate this tab
# A B C D E F G H I J K L M N O P Q R S T U V W X Y Z